  0
SECTION
  2
HEADER
  9
$ACADVER
  1
AC1015
  9
$ACADMAINTVER
 70
    20
  9
$DWGCODEPAGE
  3
ANSI_932
  9
$INSBASE
 10
0.0
 20
0.0
 30
0.0
  9
$EXTMIN
 10
-800.0549274497361
 20
-1204.432801395556
 30
-0.0015258207003583
  9
$EXTMAX
 10
1000.054935831641
 20
1471.867842570083
 30
0.0000000349246037
  9
$LIMMIN
 10
0.0
 20
0.0
  9
$LIMMAX
 10
0.0
 20
0.0
  9
$ORTHOMODE
 70
     0
  9
$REGENMODE
 70
     1
  9
$FILLMODE
 70
     1
  9
$QTEXTMODE
 70
     0
  9
$MIRRTEXT
 70
     1
  9
$LTSCALE
 40
50.8
  9
$ATTMODE
 70
     1
  9
$TEXTSIZE
 40
0.0
  9
$TRACEWID
 40
1.0
  9
$TEXTSTYLE
  7
STANDARD
  9
$CLAYER
  8
DATA
  9
$CELTYPE
  6
ByLayer
  9
$CECOLOR
 62
   256
  9
$CELTSCALE
 40
1.0
  9
$DISPSILH
 70
     0
  9
$DIMSCALE
 40
1.0
  9
$DIMASZ
 40
0.18
  9
$DIMEXO
 40
0.0625
  9
$DIMDLI
 40
0.38
  9
$DIMRND
 40
0.0
  9
$DIMDLE
 40
0.0
  9
$DIMEXE
 40
0.18
  9
$DIMTP
 40
0.0
  9
$DIMTM
 40
0.0
  9
$DIMTXT
 40
0.18
  9
$DIMCEN
 40
0.09
  9
$DIMTSZ
 40
0.0
  9
$DIMTOL
 70
     0
  9
$DIMLIM
 70
     0
  9
$DIMTIH
 70
     1
  9
$DIMTOH
 70
     1
  9
$DIMSE1
 70
     0
  9
$DIMSE2
 70
     0
  9
$DIMTAD
 70
     0
  9
$DIMZIN
 70
     0
  9
$DIMBLK
  1

  9
$DIMASO
 70
     1
  9
$DIMSHO
 70
     1
  9
$DIMPOST
  1

  9
$DIMAPOST
  1

  9
$DIMALT
 70
     0
  9
$DIMALTD
 70
     2
  9
$DIMALTF
 40
25.4
  9
$DIMLFAC
 40
1.0
  9
$DIMTOFL
 70
     0
  9
$DIMTVP
 40
0.0
  9
$DIMTIX
 70
     0
  9
$DIMSOXD
 70
     0
  9
$DIMSAH
 70
     0
  9
$DIMBLK1
  1

  9
$DIMBLK2
  1

  9
$DIMSTYLE
  2
STANDARD
  9
$DIMCLRD
 70
     0
  9
$DIMCLRE
 70
     0
  9
$DIMCLRT
 70
     0
  9
$DIMTFAC
 40
1.0
  9
$DIMGAP
 40
0.09
  9
$DIMJUST
 70
     0
  9
$DIMSD1
 70
     0
  9
$DIMSD2
 70
     0
  9
$DIMTOLJ
 70
     1
  9
$DIMTZIN
 70
     0
  9
$DIMALTZ
 70
     0
  9
$DIMALTTZ
 70
     0
  9
$DIMUPT
 70
     0
  9
$DIMDEC
 70
     4
  9
$DIMTDEC
 70
     4
  9
$DIMALTU
 70
     2
  9
$DIMALTTD
 70
     2
  9
$DIMTXSTY
  7
STANDARD
  9
$DIMAUNIT
 70
     0
  9
$DIMADEC
 70
     0
  9
$DIMALTRND
 40
0.0
  9
$DIMAZIN
 70
     0
  9
$DIMDSEP
 70
    46
  9
$DIMATFIT
 70
     3
  9
$DIMFRAC
 70
     0
  9
$DIMLDRBLK
  1

  9
$DIMLUNIT
 70
     2
  9
$DIMLWD
 70
    -2
  9
$DIMLWE
 70
    -2
  9
$DIMTMOVE
 70
     0
  9
$LUNITS
 70
     2
  9
$LUPREC
 70
     4
  9
$SKETCHINC
 40
0.1
  9
$FILLETRAD
 40
0.0
  9
$AUNITS
 70
     0
  9
$AUPREC
 70
     0
  9
$MENU
  1
acad
  9
$ELEVATION
 40
0.0
  9
$PELEVATION
 40
0.0
  9
$THICKNESS
 40
0.0
  9
$LIMCHECK
 70
     0
  9
$CHAMFERA
 40
0.0
  9
$CHAMFERB
 40
0.0
  9
$CHAMFERC
 40
0.0
  9
$CHAMFERD
 40
0.0
  9
$SKPOLY
 70
     0
  9
$TDCREATE
 40
2457823.501203704
  9
$TDUCREATE
 40
2457823.126203704
  9
$TDUPDATE
 40
2457823.548773148
  9
$TDUUPDATE
 40
2457823.173773148
  9
$TDINDWG
 40
0.0002777778
  9
$TDUSRTIMER
 40
0.0002777778
  9
$USRTIMER
 70
     1
  9
$ANGBASE
 50
0.0
  9
$ANGDIR
 70
     0
  9
$PDMODE
 70
     1
  9
$PDSIZE
 40
-2.0
  9
$PLINEWID
 40
0.0
  9
$SPLFRAME
 70
     0
  9
$SPLINETYPE
 70
     6
  9
$SPLINESEGS
 70
     8
  9
$HANDSEED
  5
494
  9
$SURFTAB1
 70
     6
  9
$SURFTAB2
 70
     6
  9
$SURFTYPE
 70
     6
  9
$SURFU
 70
     6
  9
$SURFV
 70
     6
  9
$UCSBASE
  2

  9
$UCSNAME
  2

  9
$UCSORG
 10
0.0
 20
0.0
 30
0.0
  9
$UCSXDIR
 10
1.0
 20
0.0
 30
0.0
  9
$UCSYDIR
 10
0.0
 20
1.0
 30
0.0
  9
$UCSORTHOREF
  2

  9
$UCSORTHOVIEW
 70
     0
  9
$UCSORGTOP
 10
0.0
 20
0.0
 30
0.0
  9
$UCSORGBOTTOM
 10
0.0
 20
0.0
 30
0.0
  9
$UCSORGLEFT
 10
0.0
 20
0.0
 30
0.0
  9
$UCSORGRIGHT
 10
0.0
 20
0.0
 30
0.0
  9
$UCSORGFRONT
 10
0.0
 20
0.0
 30
0.0
  9
$UCSORGBACK
 10
0.0
 20
0.0
 30
0.0
  9
$PUCSBASE
  2

  9
$PUCSNAME
  2

  9
$PUCSORG
 10
0.0
 20
0.0
 30
0.0
  9
$PUCSXDIR
 10
1.0
 20
0.0
 30
0.0
  9
$PUCSYDIR
 10
0.0
 20
1.0
 30
0.0
  9
$PUCSORTHOREF
  2

  9
$PUCSORTHOVIEW
 70
     0
  9
$PUCSORGTOP
 10
0.0
 20
0.0
 30
0.0
  9
$PUCSORGBOTTOM
 10
0.0
 20
0.0
 30
0.0
  9
$PUCSORGLEFT
 10
0.0
 20
0.0
 30
0.0
  9
$PUCSORGRIGHT
 10
0.0
 20
0.0
 30
0.0
  9
$PUCSORGFRONT
 10
0.0
 20
0.0
 30
0.0
  9
$PUCSORGBACK
 10
0.0
 20
0.0
 30
0.0
  9
$USERI1
 70
     0
  9
$USERI2
 70
     0
  9
$USERI3
 70
     0
  9
$USERI4
 70
     0
  9
$USERI5
 70
     0
  9
$USERR1
 40
0.0
  9
$USERR2
 40
0.0
  9
$USERR3
 40
0.0
  9
$USERR4
 40
0.0
  9
$USERR5
 40
0.0
  9
$WORLDVIEW
 70
     1
  9
$SHADEDGE
 70
     3
  9
$SHADEDIF
 70
    70
  9
$TILEMODE
 70
     1
  9
$MAXACTVP
 70
    64
  9
$PINSBASE
 10
0.0
 20
0.0
 30
0.0
  9
$PLIMCHECK
 70
     0
  9
$PEXTMIN
 10
1.000000000000000E+20
 20
1.000000000000000E+20
 30
1.000000000000000E+20
  9
$PEXTMAX
 10
-1.000000000000000E+20
 20
-1.000000000000000E+20
 30
-1.000000000000000E+20
  9
$PLIMMIN
 10
0.0
 20
0.0
  9
$PLIMMAX
 10
12.0
 20
9.0
  9
$UNITMODE
 70
     0
  9
$VISRETAIN
 70
     0
  9
$PLINEGEN
 70
     1
  9
$PSLTSCALE
 70
     0
  9
$TREEDEPTH
 70
  3020
  9
$CMLSTYLE
  2
Standard
  9
$CMLJUST
 70
     0
  9
$CMLSCALE
 40
1.0
  9
$PROXYGRAPHICS
 70
     1
  9
$MEASUREMENT
 70
     0
  9
$CELWEIGHT
370
    -1
  9
$ENDCAPS
280
     0
  9
$JOINSTYLE
280
     0
  9
$LWDISPLAY
290
     0
  9
$INSUNITS
 70
     0
  9
$HYPERLINKBASE
  1

  9
$STYLESHEET
  1

  9
$XEDIT
290
     1
  9
$CEPSNTYPE
380
     0
  9
$PSTYLEMODE
290
     1
  9
$FINGERPRINTGUID
  2
{CEF128EA-FBFD-DF43-A9FE-DA926655CDDA}
  9
$VERSIONGUID
  2
{AA289FD1-1BCA-A04F-935D-F255BBD49AE0}
  9
$EXTNAMES
290
     1
  9
$PSVPSCALE
 40
0.0
  9
$OLESTARTUP
290
     0
  0
ENDSEC
  0
SECTION
  2
CLASSES
  0
CLASS
  1
ACDBDICTIONARYWDFLT
  2
AcDbDictionaryWithDefault
  3
ObjectDBX Classes
 90
        0
280
     0
281
     0
  0
CLASS
  1
MATERIAL
  2
AcDbMaterial
  3
ObjectDBX Classes
 90
     1153
280
     0
281
     0
  0
CLASS
  1
VISUALSTYLE
  2
AcDbVisualStyle
  3
ObjectDBX Classes
 90
     4095
280
     0
281
     0
  0
CLASS
  1
SCALE
  2
AcDbScale
  3
ObjectDBX Classes
 90
     1153
280
     0
281
     0
  0
CLASS
  1
TABLESTYLE
  2
AcDbTableStyle
  3
ObjectDBX Classes
 90
     4095
280
     0
281
     0
  0
CLASS
  1
MLEADERSTYLE
  2
AcDbMLeaderStyle
  3
ACDB_MLEADERSTYLE_CLASS
 90
     4095
280
     0
281
     0
  0
CLASS
  1
ACDBSECTIONVIEWSTYLE
  2
AcDbSectionViewStyle
  3
ObjectDBX Classes
 90
     1025
280
     0
281
     0
  0
CLASS
  1
ACDBDETAILVIEWSTYLE
  2
AcDbDetailViewStyle
  3
ObjectDBX Classes
 90
     1025
280
     0
281
     0
  0
CLASS
  1
DICTIONARYVAR
  2
AcDbDictionaryVar
  3
ObjectDBX Classes
 90
        0
280
     0
281
     0
  0
CLASS
  1
CELLSTYLEMAP
  2
AcDbCellStyleMap
  3
ObjectDBX Classes
 90
     1152
280
     0
281
     0
  0
CLASS
  1
ACDBPLACEHOLDER
  2
AcDbPlaceHolder
  3
ObjectDBX Classes
 90
        0
280
     0
281
     0
  0
CLASS
  1
LAYOUT
  2
AcDbLayout
  3
ObjectDBX Classes
 90
        0
280
     0
281
     0
  0
ENDSEC
  0
SECTION
  2
TABLES
  0
TABLE
  2
VPORT
  5
3BB
330
0
100
AcDbSymbolTable
 70
     1
  0
VPORT
  5
427
330
3BB
100
AcDbSymbolTableRecord
100
AcDbViewportTableRecord
  2
*ACTIVE
 70
     0
 10
0.0
 20
0.0
 11
1.0
 21
1.0
 12
100.0000041909525
 22
133.7175205872631
 13
0.0
 23
0.0
 14
1.0
 24
1.0
 15
0.0
 25
0.0
 16
0.0
 26
0.0
 36
1.0
 17
0.0
 27
0.0
 37
0.0
 40
2691.196565917211
 41
2.358402971216341
 42
50.0
 43
0.0
 44
0.0
 50
0.0
 51
0.0
 71
     0
 72
  2000
 73
     1
 74
     1
 75
     0
 76
     0
 77
     0
 78
     0
281
     0
 65
     1
110
0.0
120
0.0
130
0.0
111
1.0
121
0.0
131
0.0
112
0.0
122
1.0
132
0.0
 79
     0
146
0.0
1001
ACAD_NAV_VCDISPLAY
1070
     3
  0
ENDTAB
  0
TABLE
  2
LTYPE
  5
3B8
330
0
100
AcDbSymbolTable
 70
    11
  0
LTYPE
  5
40D
330
3B8
100
AcDbSymbolTableRecord
100
AcDbLinetypeTableRecord
  2
ByBlock
 70
     0
  3

 72
    65
 73
     0
 40
0.0
  0
LTYPE
  5
40E
330
3B8
100
AcDbSymbolTableRecord
100
AcDbLinetypeTableRecord
  2
ByLayer
 70
     0
  3

 72
    65
 73
     0
 40
0.0
  0
LTYPE
  5
40F
330
3B8
100
AcDbSymbolTableRecord
100
AcDbLinetypeTableRecord
  2
CONTINUOUS
 70
     0
  3
Solid line
 72
    65
 73
     0
 40
0.0
  0
ENDTAB
  0
TABLE
  2
LAYER
  5
3B5
330
0
100
AcDbSymbolTable
 70
     6
  0
LAYER
  5
407
102
{ACAD_XDICTIONARY
360
43C
102
}
330
3B5
100
AcDbSymbolTableRecord
100
AcDbLayerTableRecord
  2
0
 70
     0
 62
     7
  6
CONTINUOUS
370
    -3
390
3C2
  0
LAYER
  5
426
102
{ACAD_XDICTIONARY
360
43E
102
}
330
3B5
100
AcDbSymbolTableRecord
100
AcDbLayerTableRecord
  2
DATA
 70
     0
 62
     7
  6
CONTINUOUS
370
    -3
390
3C2
  0
LAYER
  5
432
102
{ACAD_XDICTIONARY
360
440
102
}
330
3B5
100
AcDbSymbolTableRecord
100
AcDbLayerTableRecord
  2
HIBINO-BASE
 70
     0
 62
     7
  6
CONTINUOUS
370
    -3
390
3C2
  0
LAYER
  5
433
102
{ACAD_XDICTIONARY
360
442
102
}
330
3B5
100
AcDbSymbolTableRecord
100
AcDbLayerTableRecord
  2
PATTERN_FILL
 70
     0
 62
     7
  6
CONTINUOUS
370
    -3
390
3C2
  0
LAYER
  5
434
102
{ACAD_XDICTIONARY
360
444
102
}
330
3B5
100
AcDbSymbolTableRecord
100
AcDbLayerTableRecord
  2
SPEC
 70
     0
 62
     7
  6
CONTINUOUS
370
    -3
390
3C2
  0
LAYER
  5
435
102
{ACAD_XDICTIONARY
360
446
102
}
330
3B5
100
AcDbSymbolTableRecord
100
AcDbLayerTableRecord
  2
DIMNSIONS
 70
     0
 62
     7
  6
CONTINUOUS
370
    -3
390
3C2
  0
ENDTAB
  0
TABLE
  2
STYLE
  5
3B6
330
0
100
AcDbSymbolTable
 70
     3
  0
STYLE
  5
408
330
3B6
100
AcDbSymbolTableRecord
100
AcDbTextStyleTableRecord
  2
STANDARD
 70
     0
 40
0.0
 41
1.0
 50
0.0
 71
     0
 42
0.0
  3
txt
  4
BIGFONT.SHX
  0
ENDTAB
  0
TABLE
  2
VIEW
  5
3B9
330
0
100
AcDbSymbolTable
 70
     0
  0
ENDTAB
  0
TABLE
  2
UCS
  5
3BA
330
0
100
AcDbSymbolTable
 70
     0
  0
ENDTAB
  0
TABLE
  2
APPID
  5
3BC
330
0
100
AcDbSymbolTable
 70
     4
  0
APPID
  5
409
330
3BC
100
AcDbSymbolTableRecord
100
AcDbRegAppTableRecord
  2
ACAD
 70
     0
  0
APPID
  5
410
330
3BC
100
AcDbSymbolTableRecord
100
AcDbRegAppTableRecord
  2
AcadAnnotative
 70
     0
  0
APPID
  5
452
330
3BC
100
AcDbSymbolTableRecord
100
AcDbRegAppTableRecord
  2
ACAD_NAV_VCDISPLAY
 70
     0
  0
APPID
  5
48B
330
3BC
100
AcDbSymbolTableRecord
100
AcDbRegAppTableRecord
  2
ACAD_MLEADERVER
 70
     0
  0
ENDTAB
  0
TABLE
  2
DIMSTYLE
  5
3BD
330
0
100
AcDbSymbolTable
 70
     2
100
AcDbDimStyleTable
 71
     0
  0
DIMSTYLE
105
40A
330
3BD
100
AcDbSymbolTableRecord
100
AcDbDimStyleTableRecord
  2
STANDARD
 70
     0
279
     2
340
408
  0
ENDTAB
  0
TABLE
  2
BLOCK_RECORD
  5
3B4
330
0
100
AcDbSymbolTable
 70
     0
  0
BLOCK_RECORD
  5
422
330
3B4
100
AcDbSymbolTableRecord
100
AcDbBlockTableRecord
  2
*Model_Space
340
425
  0
BLOCK_RECORD
  5
41E
330
3B4
100
AcDbSymbolTableRecord
100
AcDbBlockTableRecord
  2
*Paper_Space
340
421
  0
ENDTAB
  0
ENDSEC
  0
SECTION
  2
BLOCKS
  0
BLOCK
  5
423
330
422
100
AcDbEntity
  8
0
100
AcDbBlockBegin
  2
*Model_Space
 70
     0
 10
0.0
 20
0.0
 30
0.0
  3
*Model_Space
  1

  0
ENDBLK
  5
424
330
422
100
AcDbEntity
  8
0
100
AcDbBlockEnd
  0
BLOCK
  5
41F
330
41E
100
AcDbEntity
 67
     1
  8
0
100
AcDbBlockBegin
  2
*Paper_Space
 70
     0
 10
0.0
 20
0.0
 30
0.0
  3
*Paper_Space
  1

  0
ENDBLK
  5
420
330
41E
100
AcDbEntity
 67
     1
  8
0
100
AcDbBlockEnd
  0
ENDSEC
  0
SECTION
  2
ENTITIES
  0
LINE
  5
2D
330
422
100
AcDbEntity
  8
HIBINO-BASE
  6
Continuous
 62
     7
100
AcDbLine
 10
-799.9999999999995
 20
1471.786335
 30
0.0
 11
1000.0
 21
1471.786335
 31
0.0
  0
LINE
  5
2E
330
422
100
AcDbEntity
  8
HIBINO-BASE
  6
Continuous
 62
     7
100
AcDbLine
 10
1000.0
 20
-1128.213665
 30
0.0
 11
-799.9999999999995
 21
-1128.213665
 31
0.0
  0
LINE
  5
2F
330
422
100
AcDbEntity
  8
HIBINO-BASE
  6
Continuous
 62
     7
100
AcDbLine
 10
-799.9999999999995
 20
-1128.213665
 30
0.0
 11
-799.9999999999995
 21
1471.786335
 31
0.0
  0
LINE
  5
30
330
422
100
AcDbEntity
  8
HIBINO-BASE
  6
Continuous
 62
     7
100
AcDbLine
 10
1000.0
 20
1471.786335
 30
0.0
 11
1000.0
 21
-1128.213665
 31
0.0
  0
LINE
  5
31
330
422
100
AcDbEntity
  8
HIBINO-BASE
  6
Continuous
 62
     7
100
AcDbLine
 10
100.0000000000002
 20
-903.2136650000001
 30
0.0
 11
1000.0
 21
-903.2136650000001
 31
0.0
  0
LINE
  5
32
330
422
100
AcDbEntity
  8
HIBINO-BASE
  6
Continuous
 62
     7
100
AcDbLine
 10
100.0000000000002
 20
-1128.213665
 30
0.0
 11
100.0000000000002
 21
-903.2136650000001
 31
0.0
  0
TEXT
  5
33
330
422
100
AcDbEntity
  8
HIBINO-BASE
 62
     7
100
AcDbText
 10
109.0000000000003
 20
-928.300598333333
 30
0.0
 40
16.28841145833333
  1
NOTE
 41
0.7
 11
109.0000000000003
 21
-912.0121868749997
 31
0.0
100
AcDbText
 73
     3
  0
LINE
  5
34
330
422
100
AcDbEntity
  8
HIBINO-BASE
  6
Continuous
 62
     7
100
AcDbLine
 10
450.0000000000005
 20
-1128.213665
 30
0.0
 11
450.0000000000005
 21
-903.2136650000001
 31
0.0
  0
TEXT
  5
35
330
422
100
AcDbEntity
  8
HIBINO-BASE
 62
     7
100
AcDbText
 10
459.0000000000002
 20
-928.300598333333
 30
0.0
 40
16.28841145833333
  1
TITLE
 41
0.7
 11
459.0000000000002
 21
-912.0121868749997
 31
0.0
100
AcDbText
 73
     3
  0
LINE
  5
36
330
422
100
AcDbEntity
  8
HIBINO-BASE
  6
Continuous
 62
     7
100
AcDbLine
 10
100.0000000000002
 20
-1028.213665
 30
0.0
 11
1000.0
 21
-1028.213665
 31
0.0
  0
TEXT
  5
37
330
422
100
AcDbEntity
  8
HIBINO-BASE
 62
     7
100
AcDbText
 10
584.0000000000001
 20
-1052.737398333333
 30
0.0
 40
16.28841145833333
  1
DRAWN
 41
0.7
 11
584.0000000000001
 21
-1036.448986874999
 31
0.0
100
AcDbText
 73
     3
  0
TEXT
  5
38
330
422
100
AcDbEntity
  8
HIBINO-BASE
 62
     7
100
AcDbText
 10
334.0000000000003
 20
-1052.737398333333
 30
0.0
 40
16.28841145833333
  1
DATE
 41
0.7
 11
334.0000000000003
 21
-1036.448986874999
 31
0.0
100
AcDbText
 73
     3
  0
TEXT
  5
39
330
422
100
AcDbEntity
  8
HIBINO-BASE
 62
     7
100
AcDbText
 10
234.0000000000002
 20
-1052.737398333333
 30
0.0
 40
16.28841145833333
  1
SCALE
 41
0.7
 11
234.0000000000002
 21
-1036.448986874999
 31
0.0
100
AcDbText
 73
     3
  0
TEXT
  5
3A
330
422
100
AcDbEntity
  8
HIBINO-BASE
 62
     7
100
AcDbText
 10
459.0000000000002
 20
-1052.737398333333
 30
0.0
 40
16.28841145833333
  1
DESIGN
 41
0.7
 11
459.0000000000002
 21
-1036.448986874999
 31
0.0
100
AcDbText
 73
     3
  0
TEXT
  5
3B
330
422
100
AcDbEntity
  8
HIBINO-BASE
 62
     7
100
AcDbText
 10
834.0000000000001
 20
-1052.737398333333
 30
0.0
 40
16.28841145833333
  1
DRAWING NO.
 41
0.7
 11
834.0000000000001
 21
-1036.448986874999
 31
0.0
100
AcDbText
 73
     3
  0
TEXT
  5
3C
330
422
100
AcDbEntity
  8
HIBINO-BASE
 62
     7
100
AcDbText
 10
709.0000000000001
 20
-1052.737398333333
 30
0.0
 40
16.28841145833333
  1
CHECK
 41
0.7
 11
709.0000000000001
 21
-1036.448986874999
 31
0.0
100
AcDbText
 73
     3
  0
LINE
  5
3D
330
422
100
AcDbEntity
  8
HIBINO-BASE
  6
Continuous
 62
     7
100
AcDbLine
 10
243.7500000000003
 20
-1115.713665
 30
0.0
 11
281.2500000000004
 21
-1078.213665
 31
0.0
  0
TEXT
  5
3E
330
422
100
AcDbEntity
  8
HIBINO-BASE
 62
     7
100
AcDbText
 10
237.5000000000003
 20
-1089.303098333333
 30
0.0
 40
16.28841145833333
  1
1
 41
0.7
 11
237.5000000000003
 21
-1073.014686874999
 31
0.0
100
AcDbText
 73
     3
  0
LINE
  5
3F
330
422
100
AcDbEntity
  8
HIBINO-BASE
  6
Continuous
 62
     7
100
AcDbLine
 10
225.0000000000003
 20
-1128.213665
 30
0.0
 11
225.0000000000003
 21
-1028.213665
 31
0.0
  0
LINE
  5
40
330
422
100
AcDbEntity
  8
HIBINO-BASE
  6
Continuous
 62
     7
100
AcDbLine
 10
325.0000000000003
 20
-1128.213665
 30
0.0
 11
325.0000000000003
 21
-1028.213665
 31
0.0
  0
LINE
  5
41
330
422
100
AcDbEntity
  8
HIBINO-BASE
  6
Continuous
 62
     7
100
AcDbLine
 10
574.9999999999999
 20
-1028.213665
 30
0.0
 11
574.9999999999999
 21
-1128.213665
 31
0.0
  0
LINE
  5
42
330
422
100
AcDbEntity
  8
HIBINO-BASE
  6
Continuous
 62
     7
100
AcDbLine
 10
825.0000000000003
 20
-1028.213665
 30
0.0
 11
825.0000000000003
 21
-1128.213665
 31
0.0
  0
LINE
  5
43
330
422
100
AcDbEntity
  8
HIBINO-BASE
  6
Continuous
 62
     7
100
AcDbLine
 10
700.0
 20
-1128.213665
 30
0.0
 11
700.0
 21
-1028.213665
 31
0.0
  0
TEXT
  5
44
330
422
100
AcDbEntity
  8
HIBINO-BASE
 62
     7
100
AcDbText
 10
333.5654000000005
 20
-1099.577198333333
 30
0.0
 40
16.28841145833333
  1
'17.02.
 41
0.7
 11
333.5654000000005
 21
-1083.288786875
 31
0.0
100
AcDbText
 73
     3
  0
TEXT
  5
45
330
422
100
AcDbEntity
  8
HIBINO-BASE
 62
     7
100
AcDbText
 10
275.0000000000003
 20
-1108.053098333333
 30
0.0
 40
16.28841145833333
  1
8
 41
0.7
 11
275.0000000000003
 21
-1091.764686874999
 31
0.0
100
AcDbText
 73
     3
  0
TEXT
  5
46
330
422
100
AcDbEntity
  8
HIBINO-BASE
 62
     7
100
AcDbText
 10
590.0581001103465
 20
-1099.577198333333
 30
0.0
 40
16.28841145833333
  1
N.Sasaki
 41
0.7
 11
590.0581001103465
 21
-1083.288786875
 31
0.0
100
AcDbText
 73
     3
  0
TEXT
  5
47
330
422
100
AcDbEntity
  8
HIBINO-BASE
 62
     7
100
AcDbText
 10
138.8333333333337
 20
-1108.453665
 30
0.0
 40
32.57682291666667
  1
A4
 41
0.7
 11
138.8333333333337
 21
-1075.876842083333
 31
0.0
100
AcDbText
 73
     3
  0
TEXT
  5
48
330
422
100
AcDbEntity
  8
HIBINO-BASE
 62
     7
100
AcDbText
 10
109.5833333333336
 20
-1054.408215
 30
0.0
 40
16.28841145833333
  1
PAPER SIZE
 41
0.7
 11
109.5833333333336
 21
-1038.119803541666
 31
0.0
100
AcDbText
 73
     3
  0
TEXT
  5
49
330
422
100
AcDbEntity
  8
HIBINO-BASE
 62
     7
100
AcDbText
 10
-728.1599999999995
 20
-1192.300443
 30
0.0
 40
36.00044179687499
  1
Hibino Corporation
 41
0.7
 11
-728.1599999999995
 21
-1156.300001203125
 31
0.0
100
AcDbText
 73
     3
  0
TEXT
  5
4A
330
422
100
AcDbEntity
  8
HIBINO-BASE
 62
     7
100
AcDbText
 10
600.6839000000001
 20
-1192.300443
 30
0.0
 40
36.00044179687499
  1
ヒビノ株式会社
 41
0.7
 11
600.6839000000001
 21
-1156.300001203125
 31
0.0
100
AcDbText
 73
     3
  0
ARC
  5
4B
330
422
100
AcDbEntity
  8
PATTERN_FILL
  6
Continuous
 62
     7
100
AcDbCircle
 10
-571.4999999999998
 20
-115.7941536686191
 30
0.0
 40
3.500000000000098
100
AcDbArc
 50
222.9333314110111
 51
335.2697539726514
  0
ARC
  5
4C
330
422
100
AcDbEntity
  8
PATTERN_FILL
  6
Continuous
 62
     7
100
AcDbCircle
 10
-561.5
 20
-115.7941536686191
 30
0.0
 40
3.5
100
AcDbArc
 50
197.1259274011634
 51
352.669410968353
  0
ARC
  5
4D
330
422
100
AcDbEntity
  8
PATTERN_FILL
  6
Continuous
 62
     7
100
AcDbCircle
 10
-541.5
 20
-115.7941536686191
 30
0.0
 40
3.499999999999984
100
AcDbArc
 50
184.9112319674501
 51
347.8407307722508
  0
ARC
  5
4E
330
422
100
AcDbEntity
  8
PATTERN_FILL
  6
Continuous
 62
     7
100
AcDbCircle
 10
-531.5
 20
-115.7941536686192
 30
0.0
 40
3.499999999999989
100
AcDbArc
 50
197.7481197996466
 51
326.5545973970489
  0
ARC
  5
4F
330
422
100
AcDbEntity
  8
PATTERN_FILL
  6
Continuous
 62
     7
100
AcDbCircle
 10
-601.5
 20
-125.7941536686191
 30
0.0
 40
3.500000000000016
100
AcDbArc
 50
210.8034623398936
 51
14.23768062419057
  0
ARC
  5
50
330
422
100
AcDbEntity
  8
PATTERN_FILL
  6
Continuous
 62
     7
100
AcDbCircle
 10
-591.4999999999998
 20
-125.7941536686191
 30
0.0
 40
3.500000000000098
100
AcDbArc
 50
138.4090484066841
 51
78.54224526489826
  0
CIRCLE
  5
51
330
422
100
AcDbEntity
  8
PATTERN_FILL
  6
Continuous
 62
     7
100
AcDbCircle
 10
-581.5
 20
-125.7941536686191
 30
0.0
 40
3.5
  0
CIRCLE
  5
52
330
422
100
AcDbEntity
  8
PATTERN_FILL
  6
Continuous
 62
     7
100
AcDbCircle
 10
-571.4999999999999
 20
-125.7941536686191
 30
0.0
 40
3.5
  0
CIRCLE
  5
53
330
422
100
AcDbEntity
  8
PATTERN_FILL
  6
Continuous
 62
     7
100
AcDbCircle
 10
-561.5
 20
-125.7941536686191
 30
0.0
 40
3.5
  0
CIRCLE
  5
54
330
422
100
AcDbEntity
  8
PATTERN_FILL
  6
Continuous
 62
     7
100
AcDbCircle
 10
-551.4999999999999
 20
-125.7941536686191
 30
0.0
 40
3.5
  0
CIRCLE
  5
55
330
422
100
AcDbEntity
  8
PATTERN_FILL
  6
Continuous
 62
     7
100
AcDbCircle
 10
-541.5
 20
-125.7941536686191
 30
0.0
 40
3.5
  0
CIRCLE
  5
56
330
422
100
AcDbEntity
  8
PATTERN_FILL
  6
Continuous
 62
     7
100
AcDbCircle
 10
-531.5
 20
-125.7941536686191
 30
0.0
 40
3.5
  0
CIRCLE
  5
57
330
422
100
AcDbEntity
  8
PATTERN_FILL
  6
Continuous
 62
     7
100
AcDbCircle
 10
-521.4999999999999
 20
-125.7941536686191
 30
0.0
 40
3.5
  0
CIRCLE
  5
58
330
422
100
AcDbEntity
  8
PATTERN_FILL
  6
Continuous
 62
     7
100
AcDbCircle
 10
-511.5
 20
-125.7941536686191
 30
0.0
 40
3.5
  0
ARC
  5
59
330
422
100
AcDbEntity
  8
PATTERN_FILL
  6
Continuous
 62
     7
100
AcDbCircle
 10
-501.4999999999999
 20
-125.7941536686191
 30
0.0
 40
3.500000000000084
100
AcDbArc
 50
148.5251050263403
 51
348.8155122047213
  0
ARC
  5
5A
330
422
100
AcDbEntity
  8
PATTERN_FILL
  6
Continuous
 62
     7
100
AcDbCircle
 10
-621.4999999999999
 20
-135.7941536686191
 30
0.0
 40
3.5
100
AcDbArc
 50
225.0057459577129
 51
19.09253343417655
  0
CIRCLE
  5
5B
330
422
100
AcDbEntity
  8
PATTERN_FILL
  6
Continuous
 62
     7
100
AcDbCircle
 10
-611.5
 20
-135.7941536686191
 30
0.0
 40
3.5
  0
CIRCLE
  5
5C
330
422
100
AcDbEntity
  8
PATTERN_FILL
  6
Continuous
 62
     7
100
AcDbCircle
 10
-601.5
 20
-135.7941536686191
 30
0.0
 40
3.5
  0
CIRCLE
  5
5D
330
422
100
AcDbEntity
  8
PATTERN_FILL
  6
Continuous
 62
     7
100
AcDbCircle
 10
-591.5
 20
-135.7941536686191
 30
0.0
 40
3.5
  0
CIRCLE
  5
5E
330
422
100
AcDbEntity
  8
PATTERN_FILL
  6
Continuous
 62
     7
100
AcDbCircle
 10
-581.5
 20
-135.7941536686191
 30
0.0
 40
3.5
  0
CIRCLE
  5
5F
330
422
100
AcDbEntity
  8
PATTERN_FILL
  6
Continuous
 62
     7
100
AcDbCircle
 10
-571.4999999999999
 20
-135.7941536686191
 30
0.0
 40
3.5
  0
CIRCLE
  5
60
330
422
100
AcDbEntity
  8
PATTERN_FILL
  6
Continuous
 62
     7
100
AcDbCircle
 10
-561.5
 20
-135.7941536686191
 30
0.0
 40
3.5
  0
CIRCLE
  5
61
330
422
100
AcDbEntity
  8
PATTERN_FILL
  6
Continuous
 62
     7
100
AcDbCircle
 10
-551.4999999999999
 20
-135.7941536686191
 30
0.0
 40
3.5
  0
CIRCLE
  5
62
330
422
100
AcDbEntity
  8
PATTERN_FILL
  6
Continuous
 62
     7
100
AcDbCircle
 10
-541.5
 20
-135.7941536686191
 30
0.0
 40
3.5
  0
CIRCLE
  5
63
330
422
100
AcDbEntity
  8
PATTERN_FILL
  6
Continuous
 62
     7
100
AcDbCircle
 10
-531.5
 20
-135.7941536686191
 30
0.0
 40
3.5
  0
CIRCLE
  5
64
330
422
100
AcDbEntity
  8
PATTERN_FILL
  6
Continuous
 62
     7
100
AcDbCircle
 10
-521.4999999999999
 20
-135.7941536686191
 30
0.0
 40
3.5
  0
CIRCLE
  5
65
330
422
100
AcDbEntity
  8
PATTERN_FILL
  6
Continuous
 62
     7
100
AcDbCircle
 10
-511.5
 20
-135.7941536686191
 30
0.0
 40
3.5
  0
CIRCLE
  5
66
330
422
100
AcDbEntity
  8
PATTERN_FILL
  6
Continuous
 62
     7
100
AcDbCircle
 10
-501.4999999999999
 20
-135.7941536686191
 30
0.0
 40
3.5
  0
CIRCLE
  5
67
330
422
100
AcDbEntity
  8
PATTERN_FILL
  6
Continuous
 62
     7
100
AcDbCircle
 10
-491.5
 20
-135.7941536686191
 30
0.0
 40
3.5
  0
ARC
  5
68
330
422
100
AcDbEntity
  8
PATTERN_FILL
  6
Continuous
 62
     7
100
AcDbCircle
 10
-481.4999999999999
 20
-135.7941536686191
 30
0.0
 40
3.500000000000061
100
AcDbArc
 50
136.1192262039365
 51
341.9706058308557
  0
ARC
  5
69
330
422
100
AcDbEntity
  8
PATTERN_FILL
  6
Continuous
 62
     7
100
AcDbCircle
 10
-631.5
 20
-145.7941536686192
 30
0.0
 40
3.50000000000002
100
AcDbArc
 50
189.4747762482955
 51
66.58356370010658
  0
CIRCLE
  5
6A
330
422
100
AcDbEntity
  8
PATTERN_FILL
  6
Continuous
 62
     7
100
AcDbCircle
 10
-621.4999999999999
 20
-145.7941536686191
 30
0.0
 40
3.5
  0
CIRCLE
  5
6B
330
422
100
AcDbEntity
  8
PATTERN_FILL
  6
Continuous
 62
     7
100
AcDbCircle
 10
-611.5
 20
-145.7941536686191
 30
0.0
 40
3.5
  0
CIRCLE
  5
6C
330
422
100
AcDbEntity
  8
PATTERN_FILL
  6
Continuous
 62
     7
100
AcDbCircle
 10
-601.5
 20
-145.7941536686191
 30
0.0
 40
3.5
  0
CIRCLE
  5
6D
330
422
100
AcDbEntity
  8
PATTERN_FILL
  6
Continuous
 62
     7
100
AcDbCircle
 10
-591.5
 20
-145.7941536686191
 30
0.0
 40
3.5
  0
CIRCLE
  5
6E
330
422
100
AcDbEntity
  8
PATTERN_FILL
  6
Continuous
 62
     7
100
AcDbCircle
 10
-581.5
 20
-145.7941536686191
 30
0.0
 40
3.5
  0
CIRCLE
  5
6F
330
422
100
AcDbEntity
  8
PATTERN_FILL
  6
Continuous
 62
     7
100
AcDbCircle
 10
-571.4999999999999
 20
-145.7941536686191
 30
0.0
 40
3.5
  0
CIRCLE
  5
70
330
422
100
AcDbEntity
  8
PATTERN_FILL
  6
Continuous
 62
     7
100
AcDbCircle
 10
-561.5
 20
-145.7941536686191
 30
0.0
 40
3.5
  0
CIRCLE
  5
71
330
422
100
AcDbEntity
  8
PATTERN_FILL
  6
Continuous
 62
     7
100
AcDbCircle
 10
-551.4999999999999
 20
-145.7941536686191
 30
0.0
 40
3.5
  0
CIRCLE
  5
72
330
422
100
AcDbEntity
  8
PATTERN_FILL
  6
Continuous
 62
     7
100
AcDbCircle
 10
-541.5
 20
-145.7941536686191
 30
0.0
 40
3.5
  0
CIRCLE
  5
73
330
422
100
AcDbEntity
  8
PATTERN_FILL
  6
Continuous
 62
     7
100
AcDbCircle
 10
-531.5
 20
-145.7941536686191
 30
0.0
 40
3.5
  0
CIRCLE
  5
74
330
422
100
AcDbEntity
  8
PATTERN_FILL
  6
Continuous
 62
     7
100
AcDbCircle
 10
-521.4999999999999
 20
-145.7941536686191
 30
0.0
 40
3.5
  0
CIRCLE
  5
75
330
422
100
AcDbEntity
  8
PATTERN_FILL
  6
Continuous
 62
     7
100
AcDbCircle
 10
-511.5
 20
-145.7941536686191
 30
0.0
 40
3.5
  0
CIRCLE
  5
76
330
422
100
AcDbEntity
  8
PATTERN_FILL
  6
Continuous
 62
     7
100
AcDbCircle
 10
-501.4999999999999
 20
-145.7941536686191
 30
0.0
 40
3.5
  0
CIRCLE
  5
77
330
422
100
AcDbEntity
  8
PATTERN_FILL
  6
Continuous
 62
     7
100
AcDbCircle
 10
-491.5
 20
-145.7941536686191
 30
0.0
 40
3.5
  0
CIRCLE
  5
78
330
422
100
AcDbEntity
  8
PATTERN_FILL
  6
Continuous
 62
     7
100
AcDbCircle
 10
-481.5
 20
-145.7941536686191
 30
0.0
 40
3.5
  0
CIRCLE
  5
79
330
422
100
AcDbEntity
  8
PATTERN_FILL
  6
Continuous
 62
     7
100
AcDbCircle
 10
-471.4999999999999
 20
-145.7941536686191
 30
0.0
 40
3.5
  0
ARC
  5
7A
330
422
100
AcDbEntity
  8
PATTERN_FILL
  6
Continuous
 62
     7
100
AcDbCircle
 10
-461.5
 20
-145.7941536686191
 30
0.0
 40
3.500000000000055
100
AcDbArc
 50
191.0054132616809
 51
268.3133919695837
  0
ARC
  5
7B
330
422
100
AcDbEntity
  8
PATTERN_FILL
  6
Continuous
 62
     7
100
AcDbCircle
 10
-641.5
 20
-155.7941536686191
 30
0.0
 40
3.500000000000028
100
AcDbArc
 50
174.8834092973354
 51
93.44704062765032
  0
CIRCLE
  5
7C
330
422
100
AcDbEntity
  8
PATTERN_FILL
  6
Continuous
 62
     7
100
AcDbCircle
 10
-631.5
 20
-155.7941536686191
 30
0.0
 40
3.5
  0
CIRCLE
  5
7D
330
422
100
AcDbEntity
  8
PATTERN_FILL
  6
Continuous
 62
     7
100
AcDbCircle
 10
-621.4999999999999
 20
-155.7941536686191
 30
0.0
 40
3.5
  0
CIRCLE
  5
7E
330
422
100
AcDbEntity
  8
PATTERN_FILL
  6
Continuous
 62
     7
100
AcDbCircle
 10
-611.5
 20
-155.7941536686191
 30
0.0
 40
3.5
  0
CIRCLE
  5
7F
330
422
100
AcDbEntity
  8
PATTERN_FILL
  6
Continuous
 62
     7
100
AcDbCircle
 10
-601.5
 20
-155.7941536686191
 30
0.0
 40
3.5
  0
CIRCLE
  5
80
330
422
100
AcDbEntity
  8
PATTERN_FILL
  6
Continuous
 62
     7
100
AcDbCircle
 10
-591.5
 20
-155.7941536686191
 30
0.0
 40
3.5
  0
CIRCLE
  5
81
330
422
100
AcDbEntity
  8
PATTERN_FILL
  6
Continuous
 62
     7
100
AcDbCircle
 10
-581.5
 20
-155.7941536686191
 30
0.0
 40
3.5
  0
CIRCLE
  5
82
330
422
100
AcDbEntity
  8
PATTERN_FILL
  6
Continuous
 62
     7
100
AcDbCircle
 10
-571.4999999999999
 20
-155.7941536686191
 30
0.0
 40
3.5
  0
CIRCLE
  5
83
330
422
100
AcDbEntity
  8
PATTERN_FILL
  6
Continuous
 62
     7
100
AcDbCircle
 10
-561.5
 20
-155.7941536686191
 30
0.0
 40
3.5
  0
CIRCLE
  5
84
330
422
100
AcDbEntity
  8
PATTERN_FILL
  6
Continuous
 62
     7
100
AcDbCircle
 10
-551.4999999999999
 20
-155.7941536686191
 30
0.0
 40
3.5
  0
CIRCLE
  5
85
330
422
100
AcDbEntity
  8
PATTERN_FILL
  6
Continuous
 62
     7
100
AcDbCircle
 10
-541.5
 20
-155.7941536686191
 30
0.0
 40
3.5
  0
CIRCLE
  5
86
330
422
100
AcDbEntity
  8
PATTERN_FILL
  6
Continuous
 62
     7
100
AcDbCircle
 10
-531.5
 20
-155.7941536686191
 30
0.0
 40
3.5
  0
CIRCLE
  5
87
330
422
100
AcDbEntity
  8
PATTERN_FILL
  6
Continuous
 62
     7
100
AcDbCircle
 10
-521.4999999999999
 20
-155.7941536686191
 30
0.0
 40
3.5
  0
CIRCLE
  5
88
330
422
100
AcDbEntity
  8
PATTERN_FILL
  6
Continuous
 62
     7
100
AcDbCircle
 10
-511.5
 20
-155.7941536686191
 30
0.0
 40
3.5
  0
CIRCLE
  5
89
330
422
100
AcDbEntity
  8
PATTERN_FILL
  6
Continuous
 62
     7
100
AcDbCircle
 10
-501.4999999999999
 20
-155.7941536686191
 30
0.0
 40
3.5
  0
CIRCLE
  5
8A
330
422
100
AcDbEntity
  8
PATTERN_FILL
  6
Continuous
 62
     7
100
AcDbCircle
 10
-491.5
 20
-155.7941536686191
 30
0.0
 40
3.5
  0
CIRCLE
  5
8B
330
422
100
AcDbEntity
  8
PATTERN_FILL
  6
Continuous
 62
     7
100
AcDbCircle
 10
-481.5
 20
-155.7941536686191
 30
0.0
 40
3.5
  0
CIRCLE
  5
8C
330
422
100
AcDbEntity
  8
PATTERN_FILL
  6
Continuous
 62
     7
100
AcDbCircle
 10
-471.4999999999999
 20
-155.7941536686191
 30
0.0
 40
3.5
  0
CIRCLE
  5
8D
330
422
100
AcDbEntity
  8
PATTERN_FILL
  6
Continuous
 62
     7
100
AcDbCircle
 10
-461.5
 20
-155.7941536686191
 30
0.0
 40
3.5
  0
ARC
  5
8E
330
422
100
AcDbEntity
  8
PATTERN_FILL
  6
Continuous
 62
     7
100
AcDbCircle
 10
-651.4999999999997
 20
-165.7941536686191
 30
0.0
 40
3.500000000000169
100
AcDbArc
 50
193.685160118792
 51
86.9556716391437
  0
CIRCLE
  5
8F
330
422
100
AcDbEntity
  8
PATTERN_FILL
  6
Continuous
 62
     7
100
AcDbCircle
 10
-641.5
 20
-165.7941536686191
 30
0.0
 40
3.5
  0
CIRCLE
  5
90
330
422
100
AcDbEntity
  8
PATTERN_FILL
  6
Continuous
 62
     7
100
AcDbCircle
 10
-631.5
 20
-165.7941536686191
 30
0.0
 40
3.5
  0
CIRCLE
  5
91
330
422
100
AcDbEntity
  8
PATTERN_FILL
  6
Continuous
 62
     7
100
AcDbCircle
 10
-621.4999999999999
 20
-165.7941536686191
 30
0.0
 40
3.5
  0
CIRCLE
  5
92
330
422
100
AcDbEntity
  8
PATTERN_FILL
  6
Continuous
 62
     7
100
AcDbCircle
 10
-611.5
 20
-165.7941536686191
 30
0.0
 40
3.5
  0
CIRCLE
  5
93
330
422
100
AcDbEntity
  8
PATTERN_FILL
  6
Continuous
 62
     7
100
AcDbCircle
 10
-601.5
 20
-165.7941536686191
 30
0.0
 40
3.5
  0
CIRCLE
  5
94
330
422
100
AcDbEntity
  8
PATTERN_FILL
  6
Continuous
 62
     7
100
AcDbCircle
 10
-591.5
 20
-165.7941536686191
 30
0.0
 40
3.5
  0
CIRCLE
  5
95
330
422
100
AcDbEntity
  8
PATTERN_FILL
  6
Continuous
 62
     7
100
AcDbCircle
 10
-581.5
 20
-165.7941536686191
 30
0.0
 40
3.5
  0
CIRCLE
  5
96
330
422
100
AcDbEntity
  8
PATTERN_FILL
  6
Continuous
 62
     7
100
AcDbCircle
 10
-571.4999999999999
 20
-165.7941536686191
 30
0.0
 40
3.5
  0
CIRCLE
  5
97
330
422
100
AcDbEntity
  8
PATTERN_FILL
  6
Continuous
 62
     7
100
AcDbCircle
 10
-561.5
 20
-165.7941536686191
 30
0.0
 40
3.5
  0
CIRCLE
  5
98
330
422
100
AcDbEntity
  8
PATTERN_FILL
  6
Continuous
 62
     7
100
AcDbCircle
 10
-551.4999999999999
 20
-165.7941536686191
 30
0.0
 40
3.5
  0
CIRCLE
  5
99
330
422
100
AcDbEntity
  8
PATTERN_FILL
  6
Continuous
 62
     7
100
AcDbCircle
 10
-541.5
 20
-165.7941536686191
 30
0.0
 40
3.5
  0
CIRCLE
  5
9A
330
422
100
AcDbEntity
  8
PATTERN_FILL
  6
Continuous
 62
     7
100
AcDbCircle
 10
-531.5
 20
-165.7941536686191
 30
0.0
 40
3.5
  0
CIRCLE
  5
9B
330
422
100
AcDbEntity
  8
PATTERN_FILL
  6
Continuous
 62
     7
100
AcDbCircle
 10
-521.4999999999999
 20
-165.7941536686191
 30
0.0
 40
3.5
  0
CIRCLE
  5
9C
330
422
100
AcDbEntity
  8
PATTERN_FILL
  6
Continuous
 62
     7
100
AcDbCircle
 10
-511.5
 20
-165.7941536686191
 30
0.0
 40
3.5
  0
CIRCLE
  5
9D
330
422
100
AcDbEntity
  8
PATTERN_FILL
  6
Continuous
 62
     7
100
AcDbCircle
 10
-501.4999999999999
 20
-165.7941536686191
 30
0.0
 40
3.5
  0
CIRCLE
  5
9E
330
422
100
AcDbEntity
  8
PATTERN_FILL
  6
Continuous
 62
     7
100
AcDbCircle
 10
-491.5
 20
-165.7941536686191
 30
0.0
 40
3.5
  0
CIRCLE
  5
9F
330
422
100
AcDbEntity
  8
PATTERN_FILL
  6
Continuous
 62
     7
100
AcDbCircle
 10
-481.5
 20
-165.7941536686191
 30
0.0
 40
3.5
  0
CIRCLE
  5
A0
330
422
100
AcDbEntity
  8
PATTERN_FILL
  6
Continuous
 62
     7
100
AcDbCircle
 10
-471.4999999999999
 20
-165.7941536686191
 30
0.0
 40
3.5
  0
CIRCLE
  5
A1
330
422
100
AcDbEntity
  8
PATTERN_FILL
  6
Continuous
 62
     7
100
AcDbCircle
 10
-461.5
 20
-165.7941536686191
 30
0.0
 40
3.5
  0
ARC
  5
A2
330
422
100
AcDbEntity
  8
PATTERN_FILL
  6
Continuous
 62
     7
100
AcDbCircle
 10
-661.5000000000001
 20
-175.7941536686191
 30
0.0
 40
3.499999999999912
100
AcDbArc
 50
236.0502136019366
 51
56.66040664269275
  0
CIRCLE
  5
A3
330
422
100
AcDbEntity
  8
PATTERN_FILL
  6
Continuous
 62
     7
100
AcDbCircle
 10
-651.5
 20
-175.7941536686191
 30
0.0
 40
3.5
  0
CIRCLE
  5
A4
330
422
100
AcDbEntity
  8
PATTERN_FILL
  6
Continuous
 62
     7
100
AcDbCircle
 10
-641.5
 20
-175.7941536686191
 30
0.0
 40
3.5
  0
CIRCLE
  5
A5
330
422
100
AcDbEntity
  8
PATTERN_FILL
  6
Continuous
 62
     7
100
AcDbCircle
 10
-631.5
 20
-175.7941536686191
 30
0.0
 40
3.5
  0
CIRCLE
  5
A6
330
422
100
AcDbEntity
  8
PATTERN_FILL
  6
Continuous
 62
     7
100
AcDbCircle
 10
-621.4999999999999
 20
-175.7941536686191
 30
0.0
 40
3.5
  0
CIRCLE
  5
A7
330
422
100
AcDbEntity
  8
PATTERN_FILL
  6
Continuous
 62
     7
100
AcDbCircle
 10
-611.5
 20
-175.7941536686191
 30
0.0
 40
3.5
  0
CIRCLE
  5
A8
330
422
100
AcDbEntity
  8
PATTERN_FILL
  6
Continuous
 62
     7
100
AcDbCircle
 10
-601.5
 20
-175.7941536686191
 30
0.0
 40
3.5
  0
CIRCLE
  5
A9
330
422
100
AcDbEntity
  8
PATTERN_FILL
  6
Continuous
 62
     7
100
AcDbCircle
 10
-591.5
 20
-175.7941536686191
 30
0.0
 40
3.5
  0
CIRCLE
  5
AA
330
422
100
AcDbEntity
  8
PATTERN_FILL
  6
Continuous
 62
     7
100
AcDbCircle
 10
-581.5
 20
-175.7941536686191
 30
0.0
 40
3.5
  0
CIRCLE
  5
AB
330
422
100
AcDbEntity
  8
PATTERN_FILL
  6
Continuous
 62
     7
100
AcDbCircle
 10
-571.4999999999999
 20
-175.7941536686191
 30
0.0
 40
3.5
  0
CIRCLE
  5
AC
330
422
100
AcDbEntity
  8
PATTERN_FILL
  6
Continuous
 62
     7
100
AcDbCircle
 10
-561.5
 20
-175.7941536686191
 30
0.0
 40
3.5
  0
CIRCLE
  5
AD
330
422
100
AcDbEntity
  8
PATTERN_FILL
  6
Continuous
 62
     7
100
AcDbCircle
 10
-551.4999999999999
 20
-175.7941536686191
 30
0.0
 40
3.5
  0
CIRCLE
  5
AE
330
422
100
AcDbEntity
  8
PATTERN_FILL
  6
Continuous
 62
     7
100
AcDbCircle
 10
-541.5
 20
-175.7941536686191
 30
0.0
 40
3.5
  0
CIRCLE
  5
AF
330
422
100
AcDbEntity
  8
PATTERN_FILL
  6
Continuous
 62
     7
100
AcDbCircle
 10
-531.5
 20
-175.7941536686191
 30
0.0
 40
3.5
  0
CIRCLE
  5
B0
330
422
100
AcDbEntity
  8
PATTERN_FILL
  6
Continuous
 62
     7
100
AcDbCircle
 10
-521.4999999999999
 20
-175.7941536686191
 30
0.0
 40
3.5
  0
CIRCLE
  5
B1
330
422
100
AcDbEntity
  8
PATTERN_FILL
  6
Continuous
 62
     7
100
AcDbCircle
 10
-511.5
 20
-175.7941536686191
 30
0.0
 40
3.5
  0
CIRCLE
  5
B2
330
422
100
AcDbEntity
  8
PATTERN_FILL
  6
Continuous
 62
     7
100
AcDbCircle
 10
-501.4999999999999
 20
-175.7941536686191
 30
0.0
 40
3.5
  0
CIRCLE
  5
B3
330
422
100
AcDbEntity
  8
PATTERN_FILL
  6
Continuous
 62
     7
100
AcDbCircle
 10
-491.5
 20
-175.7941536686191
 30
0.0
 40
3.5
  0
CIRCLE
  5
B4
330
422
100
AcDbEntity
  8
PATTERN_FILL
  6
Continuous
 62
     7
100
AcDbCircle
 10
-481.5
 20
-175.7941536686191
 30
0.0
 40
3.5
  0
CIRCLE
  5
B5
330
422
100
AcDbEntity
  8
PATTERN_FILL
  6
Continuous
 62
     7
100
AcDbCircle
 10
-471.4999999999999
 20
-175.7941536686191
 30
0.0
 40
3.5
  0
CIRCLE
  5
B6
330
422
100
AcDbEntity
  8
PATTERN_FILL
  6
Continuous
 62
     7
100
AcDbCircle
 10
-461.5
 20
-175.7941536686191
 30
0.0
 40
3.5
  0
CIRCLE
  5
B7
330
422
100
AcDbEntity
  8
PATTERN_FILL
  6
Continuous
 62
     7
100
AcDbCircle
 10
-661.5
 20
-185.7941536686191
 30
0.0
 40
3.5
  0
CIRCLE
  5
B8
330
422
100
AcDbEntity
  8
PATTERN_FILL
  6
Continuous
 62
     7
100
AcDbCircle
 10
-651.5
 20
-185.7941536686191
 30
0.0
 40
3.5
  0
CIRCLE
  5
B9
330
422
100
AcDbEntity
  8
PATTERN_FILL
  6
Continuous
 62
     7
100
AcDbCircle
 10
-641.5
 20
-185.7941536686191
 30
0.0
 40
3.5
  0
CIRCLE
  5
BA
330
422
100
AcDbEntity
  8
PATTERN_FILL
  6
Continuous
 62
     7
100
AcDbCircle
 10
-631.5
 20
-185.7941536686191
 30
0.0
 40
3.5
  0
CIRCLE
  5
BB
330
422
100
AcDbEntity
  8
PATTERN_FILL
  6
Continuous
 62
     7
100
AcDbCircle
 10
-621.4999999999999
 20
-185.7941536686191
 30
0.0
 40
3.5
  0
CIRCLE
  5
BC
330
422
100
AcDbEntity
  8
PATTERN_FILL
  6
Continuous
 62
     7
100
AcDbCircle
 10
-611.5
 20
-185.7941536686191
 30
0.0
 40
3.5
  0
CIRCLE
  5
BD
330
422
100
AcDbEntity
  8
PATTERN_FILL
  6
Continuous
 62
     7
100
AcDbCircle
 10
-601.5
 20
-185.7941536686191
 30
0.0
 40
3.5
  0
CIRCLE
  5
BE
330
422
100
AcDbEntity
  8
PATTERN_FILL
  6
Continuous
 62
     7
100
AcDbCircle
 10
-591.5
 20
-185.7941536686191
 30
0.0
 40
3.5
  0
CIRCLE
  5
BF
330
422
100
AcDbEntity
  8
PATTERN_FILL
  6
Continuous
 62
     7
100
AcDbCircle
 10
-581.5
 20
-185.7941536686191
 30
0.0
 40
3.5
  0
CIRCLE
  5
C0
330
422
100
AcDbEntity
  8
PATTERN_FILL
  6
Continuous
 62
     7
100
AcDbCircle
 10
-571.4999999999999
 20
-185.7941536686191
 30
0.0
 40
3.5
  0
CIRCLE
  5
C1
330
422
100
AcDbEntity
  8
PATTERN_FILL
  6
Continuous
 62
     7
100
AcDbCircle
 10
-561.5
 20
-185.7941536686191
 30
0.0
 40
3.5
  0
CIRCLE
  5
C2
330
422
100
AcDbEntity
  8
PATTERN_FILL
  6
Continuous
 62
     7
100
AcDbCircle
 10
-551.4999999999999
 20
-185.7941536686191
 30
0.0
 40
3.5
  0
CIRCLE
  5
C3
330
422
100
AcDbEntity
  8
PATTERN_FILL
  6
Continuous
 62
     7
100
AcDbCircle
 10
-541.5
 20
-185.7941536686191
 30
0.0
 40
3.5
  0
CIRCLE
  5
C4
330
422
100
AcDbEntity
  8
PATTERN_FILL
  6
Continuous
 62
     7
100
AcDbCircle
 10
-531.5
 20
-185.7941536686191
 30
0.0
 40
3.5
  0
CIRCLE
  5
C5
330
422
100
AcDbEntity
  8
PATTERN_FILL
  6
Continuous
 62
     7
100
AcDbCircle
 10
-521.4999999999999
 20
-185.7941536686191
 30
0.0
 40
3.5
  0
CIRCLE
  5
C6
330
422
100
AcDbEntity
  8
PATTERN_FILL
  6
Continuous
 62
     7
100
AcDbCircle
 10
-511.5
 20
-185.7941536686191
 30
0.0
 40
3.5
  0
CIRCLE
  5
C7
330
422
100
AcDbEntity
  8
PATTERN_FILL
  6
Continuous
 62
     7
100
AcDbCircle
 10
-501.4999999999999
 20
-185.7941536686191
 30
0.0
 40
3.5
  0
CIRCLE
  5
C8
330
422
100
AcDbEntity
  8
PATTERN_FILL
  6
Continuous
 62
     7
100
AcDbCircle
 10
-491.5
 20
-185.7941536686191
 30
0.0
 40
3.5
  0
CIRCLE
  5
C9
330
422
100
AcDbEntity
  8
PATTERN_FILL
  6
Continuous
 62
     7
100
AcDbCircle
 10
-481.5
 20
-185.7941536686191
 30
0.0
 40
3.5
  0
CIRCLE
  5
CA
330
422
100
AcDbEntity
  8
PATTERN_FILL
  6
Continuous
 62
     7
100
AcDbCircle
 10
-471.4999999999999
 20
-185.7941536686191
 30
0.0
 40
3.5
  0
CIRCLE
  5
CB
330
422
100
AcDbEntity
  8
PATTERN_FILL
  6
Continuous
 62
     7
100
AcDbCircle
 10
-461.5
 20
-185.7941536686191
 30
0.0
 40
3.5
  0
ARC
  5
CC
330
422
100
AcDbEntity
  8
PATTERN_FILL
  6
Continuous
 62
     7
100
AcDbCircle
 10
-671.4999999999999
 20
-195.7941536686191
 30
0.0
 40
3.500000000000069
100
AcDbArc
 50
230.8171480660007
 51
81.09585739502607
  0
CIRCLE
  5
CD
330
422
100
AcDbEntity
  8
PATTERN_FILL
  6
Continuous
 62
     7
100
AcDbCircle
 10
-661.5
 20
-195.7941536686191
 30
0.0
 40
3.5
  0
CIRCLE
  5
CE
330
422
100
AcDbEntity
  8
PATTERN_FILL
  6
Continuous
 62
     7
100
AcDbCircle
 10
-651.5
 20
-195.7941536686191
 30
0.0
 40
3.5
  0
CIRCLE
  5
CF
330
422
100
AcDbEntity
  8
PATTERN_FILL
  6
Continuous
 62
     7
100
AcDbCircle
 10
-641.5
 20
-195.7941536686191
 30
0.0
 40
3.5
  0
CIRCLE
  5
D0
330
422
100
AcDbEntity
  8
PATTERN_FILL
  6
Continuous
 62
     7
100
AcDbCircle
 10
-631.5
 20
-195.7941536686191
 30
0.0
 40
3.5
  0
CIRCLE
  5
D1
330
422
100
AcDbEntity
  8
PATTERN_FILL
  6
Continuous
 62
     7
100
AcDbCircle
 10
-621.4999999999999
 20
-195.7941536686191
 30
0.0
 40
3.5
  0
CIRCLE
  5
D2
330
422
100
AcDbEntity
  8
PATTERN_FILL
  6
Continuous
 62
     7
100
AcDbCircle
 10
-611.5
 20
-195.7941536686191
 30
0.0
 40
3.5
  0
CIRCLE
  5
D3
330
422
100
AcDbEntity
  8
PATTERN_FILL
  6
Continuous
 62
     7
100
AcDbCircle
 10
-601.5
 20
-195.7941536686191
 30
0.0
 40
3.5
  0
CIRCLE
  5
D4
330
422
100
AcDbEntity
  8
PATTERN_FILL
  6
Continuous
 62
     7
100
AcDbCircle
 10
-591.5
 20
-195.7941536686191
 30
0.0
 40
3.5
  0
CIRCLE
  5
D5
330
422
100
AcDbEntity
  8
PATTERN_FILL
  6
Continuous
 62
     7
100
AcDbCircle
 10
-581.5
 20
-195.7941536686191
 30
0.0
 40
3.5
  0
CIRCLE
  5
D6
330
422
100
AcDbEntity
  8
PATTERN_FILL
  6
Continuous
 62
     7
100
AcDbCircle
 10
-571.4999999999999
 20
-195.7941536686191
 30
0.0
 40
3.5
  0
CIRCLE
  5
D7
330
422
100
AcDbEntity
  8
PATTERN_FILL
  6
Continuous
 62
     7
100
AcDbCircle
 10
-561.5
 20
-195.7941536686191
 30
0.0
 40
3.5
  0
CIRCLE
  5
D8
330
422
100
AcDbEntity
  8
PATTERN_FILL
  6
Continuous
 62
     7
100
AcDbCircle
 10
-551.4999999999999
 20
-195.7941536686191
 30
0.0
 40
3.5
  0
CIRCLE
  5
D9
330
422
100
AcDbEntity
  8
PATTERN_FILL
  6
Continuous
 62
     7
100
AcDbCircle
 10
-541.5
 20
-195.7941536686191
 30
0.0
 40
3.5
  0
CIRCLE
  5
DA
330
422
100
AcDbEntity
  8
PATTERN_FILL
  6
Continuous
 62
     7
100
AcDbCircle
 10
-531.5
 20
-195.7941536686191
 30
0.0
 40
3.5
  0
CIRCLE
  5
DB
330
422
100
AcDbEntity
  8
PATTERN_FILL
  6
Continuous
 62
     7
100
AcDbCircle
 10
-521.4999999999999
 20
-195.7941536686191
 30
0.0
 40
3.5
  0
CIRCLE
  5
DC
330
422
100
AcDbEntity
  8
PATTERN_FILL
  6
Continuous
 62
     7
100
AcDbCircle
 10
-511.5
 20
-195.7941536686191
 30
0.0
 40
3.5
  0
CIRCLE
  5
DD
330
422
100
AcDbEntity
  8
PATTERN_FILL
  6
Continuous
 62
     7
100
AcDbCircle
 10
-501.4999999999999
 20
-195.7941536686191
 30
0.0
 40
3.5
  0
CIRCLE
  5
DE
330
422
100
AcDbEntity
  8
PATTERN_FILL
  6
Continuous
 62
     7
100
AcDbCircle
 10
-491.5
 20
-195.7941536686191
 30
0.0
 40
3.5
  0
CIRCLE
  5
DF
330
422
100
AcDbEntity
  8
PATTERN_FILL
  6
Continuous
 62
     7
100
AcDbCircle
 10
-481.5
 20
-195.7941536686191
 30
0.0
 40
3.5
  0
CIRCLE
  5
E0
330
422
100
AcDbEntity
  8
PATTERN_FILL
  6
Continuous
 62
     7
100
AcDbCircle
 10
-471.4999999999999
 20
-195.7941536686191
 30
0.0
 40
3.5
  0
CIRCLE
  5
E1
330
422
100
AcDbEntity
  8
PATTERN_FILL
  6
Continuous
 62
     7
100
AcDbCircle
 10
-461.5
 20
-195.7941536686191
 30
0.0
 40
3.5
  0
CIRCLE
  5
E2
330
422
100
AcDbEntity
  8
PATTERN_FILL
  6
Continuous
 62
     7
100
AcDbCircle
 10
-671.4999999999999
 20
-205.7941536686191
 30
0.0
 40
3.5
  0
CIRCLE
  5
E3
330
422
100
AcDbEntity
  8
PATTERN_FILL
  6
Continuous
 62
     7
100
AcDbCircle
 10
-661.5
 20
-205.7941536686191
 30
0.0
 40
3.5
  0
CIRCLE
  5
E4
330
422
100
AcDbEntity
  8
PATTERN_FILL
  6
Continuous
 62
     7
100
AcDbCircle
 10
-651.5
 20
-205.7941536686191
 30
0.0
 40
3.5
  0
CIRCLE
  5
E5
330
422
100
AcDbEntity
  8
PATTERN_FILL
  6
Continuous
 62
     7
100
AcDbCircle
 10
-641.5
 20
-205.7941536686191
 30
0.0
 40
3.5
  0
CIRCLE
  5
E6
330
422
100
AcDbEntity
  8
PATTERN_FILL
  6
Continuous
 62
     7
100
AcDbCircle
 10
-631.5
 20
-205.7941536686191
 30
0.0
 40
3.5
  0
CIRCLE
  5
E7
330
422
100
AcDbEntity
  8
PATTERN_FILL
  6
Continuous
 62
     7
100
AcDbCircle
 10
-621.4999999999999
 20
-205.7941536686191
 30
0.0
 40
3.5
  0
CIRCLE
  5
E8
330
422
100
AcDbEntity
  8
PATTERN_FILL
  6
Continuous
 62
     7
100
AcDbCircle
 10
-611.5
 20
-205.7941536686191
 30
0.0
 40
3.5
  0
CIRCLE
  5
E9
330
422
100
AcDbEntity
  8
PATTERN_FILL
  6
Continuous
 62
     7
100
AcDbCircle
 10
-601.5
 20
-205.7941536686191
 30
0.0
 40
3.5
  0
CIRCLE
  5
EA
330
422
100
AcDbEntity
  8
PATTERN_FILL
  6
Continuous
 62
     7
100
AcDbCircle
 10
-591.5
 20
-205.7941536686191
 30
0.0
 40
3.5
  0
CIRCLE
  5
EB
330
422
100
AcDbEntity
  8
PATTERN_FILL
  6
Continuous
 62
     7
100
AcDbCircle
 10
-581.5
 20
-205.7941536686191
 30
0.0
 40
3.5
  0
CIRCLE
  5
EC
330
422
100
AcDbEntity
  8
PATTERN_FILL
  6
Continuous
 62
     7
100
AcDbCircle
 10
-571.4999999999999
 20
-205.7941536686191
 30
0.0
 40
3.5
  0
CIRCLE
  5
ED
330
422
100
AcDbEntity
  8
PATTERN_FILL
  6
Continuous
 62
     7
100
AcDbCircle
 10
-561.5
 20
-205.7941536686191
 30
0.0
 40
3.5
  0
CIRCLE
  5
EE
330
422
100
AcDbEntity
  8
PATTERN_FILL
  6
Continuous
 62
     7
100
AcDbCircle
 10
-551.4999999999999
 20
-205.7941536686191
 30
0.0
 40
3.5
  0
CIRCLE
  5
EF
330
422
100
AcDbEntity
  8
PATTERN_FILL
  6
Continuous
 62
     7
100
AcDbCircle
 10
-541.5
 20
-205.7941536686191
 30
0.0
 40
3.5
  0
CIRCLE
  5
F0
330
422
100
AcDbEntity
  8
PATTERN_FILL
  6
Continuous
 62
     7
100
AcDbCircle
 10
-531.5
 20
-205.7941536686191
 30
0.0
 40
3.5
  0
CIRCLE
  5
F1
330
422
100
AcDbEntity
  8
PATTERN_FILL
  6
Continuous
 62
     7
100
AcDbCircle
 10
-521.4999999999999
 20
-205.7941536686191
 30
0.0
 40
3.5
  0
CIRCLE
  5
F2
330
422
100
AcDbEntity
  8
PATTERN_FILL
  6
Continuous
 62
     7
100
AcDbCircle
 10
-511.5
 20
-205.7941536686191
 30
0.0
 40
3.5
  0
CIRCLE
  5
F3
330
422
100
AcDbEntity
  8
PATTERN_FILL
  6
Continuous
 62
     7
100
AcDbCircle
 10
-501.4999999999999
 20
-205.7941536686191
 30
0.0
 40
3.5
  0
CIRCLE
  5
F4
330
422
100
AcDbEntity
  8
PATTERN_FILL
  6
Continuous
 62
     7
100
AcDbCircle
 10
-491.5
 20
-205.7941536686191
 30
0.0
 40
3.5
  0
CIRCLE
  5
F5
330
422
100
AcDbEntity
  8
PATTERN_FILL
  6
Continuous
 62
     7
100
AcDbCircle
 10
-481.5
 20
-205.7941536686191
 30
0.0
 40
3.5
  0
CIRCLE
  5
F6
330
422
100
AcDbEntity
  8
PATTERN_FILL
  6
Continuous
 62
     7
100
AcDbCircle
 10
-471.4999999999999
 20
-205.7941536686191
 30
0.0
 40
3.5
  0
CIRCLE
  5
F7
330
422
100
AcDbEntity
  8
PATTERN_FILL
  6
Continuous
 62
     7
100
AcDbCircle
 10
-461.5
 20
-205.7941536686191
 30
0.0
 40
3.5
  0
ARC
  5
F8
330
422
100
AcDbEntity
  8
PATTERN_FILL
  6
Continuous
 62
     7
100
AcDbCircle
 10
-681.5
 20
-215.7941536686191
 30
0.0
 40
3.499999999999974
100
AcDbArc
 50
288.4564071370455
 51
42.3822264242924
  0
CIRCLE
  5
F9
330
422
100
AcDbEntity
  8
PATTERN_FILL
  6
Continuous
 62
     7
100
AcDbCircle
 10
-671.4999999999999
 20
-215.7941536686191
 30
0.0
 40
3.5
  0
CIRCLE
  5
FA
330
422
100
AcDbEntity
  8
PATTERN_FILL
  6
Continuous
 62
     7
100
AcDbCircle
 10
-661.5
 20
-215.7941536686191
 30
0.0
 40
3.5
  0
CIRCLE
  5
FB
330
422
100
AcDbEntity
  8
PATTERN_FILL
  6
Continuous
 62
     7
100
AcDbCircle
 10
-651.5
 20
-215.7941536686191
 30
0.0
 40
3.5
  0
CIRCLE
  5
FC
330
422
100
AcDbEntity
  8
PATTERN_FILL
  6
Continuous
 62
     7
100
AcDbCircle
 10
-641.5
 20
-215.7941536686191
 30
0.0
 40
3.5
  0
CIRCLE
  5
FD
330
422
100
AcDbEntity
  8
PATTERN_FILL
  6
Continuous
 62
     7
100
AcDbCircle
 10
-631.5
 20
-215.7941536686191
 30
0.0
 40
3.5
  0
CIRCLE
  5
FE
330
422
100
AcDbEntity
  8
PATTERN_FILL
  6
Continuous
 62
     7
100
AcDbCircle
 10
-621.4999999999999
 20
-215.7941536686191
 30
0.0
 40
3.5
  0
CIRCLE
  5
FF
330
422
100
AcDbEntity
  8
PATTERN_FILL
  6
Continuous
 62
     7
100
AcDbCircle
 10
-611.5
 20
-215.7941536686191
 30
0.0
 40
3.5
  0
CIRCLE
  5
100
330
422
100
AcDbEntity
  8
PATTERN_FILL
  6
Continuous
 62
     7
100
AcDbCircle
 10
-601.5
 20
-215.7941536686191
 30
0.0
 40
3.5
  0
CIRCLE
  5
101
330
422
100
AcDbEntity
  8
PATTERN_FILL
  6
Continuous
 62
     7
100
AcDbCircle
 10
-591.5
 20
-215.7941536686191
 30
0.0
 40
3.5
  0
CIRCLE
  5
102
330
422
100
AcDbEntity
  8
PATTERN_FILL
  6
Continuous
 62
     7
100
AcDbCircle
 10
-581.5
 20
-215.7941536686191
 30
0.0
 40
3.5
  0
CIRCLE
  5
103
330
422
100
AcDbEntity
  8
PATTERN_FILL
  6
Continuous
 62
     7
100
AcDbCircle
 10
-571.4999999999999
 20
-215.7941536686191
 30
0.0
 40
3.5
  0
CIRCLE
  5
104
330
422
100
AcDbEntity
  8
PATTERN_FILL
  6
Continuous
 62
     7
100
AcDbCircle
 10
-561.5
 20
-215.7941536686191
 30
0.0
 40
3.5
  0
CIRCLE
  5
105
330
422
100
AcDbEntity
  8
PATTERN_FILL
  6
Continuous
 62
     7
100
AcDbCircle
 10
-551.4999999999999
 20
-215.7941536686191
 30
0.0
 40
3.5
  0
CIRCLE
  5
106
330
422
100
AcDbEntity
  8
PATTERN_FILL
  6
Continuous
 62
     7
100
AcDbCircle
 10
-541.5
 20
-215.7941536686191
 30
0.0
 40
3.5
  0
CIRCLE
  5
107
330
422
100
AcDbEntity
  8
PATTERN_FILL
  6
Continuous
 62
     7
100
AcDbCircle
 10
-531.5
 20
-215.7941536686191
 30
0.0
 40
3.5
  0
CIRCLE
  5
108
330
422
100
AcDbEntity
  8
PATTERN_FILL
  6
Continuous
 62
     7
100
AcDbCircle
 10
-521.4999999999999
 20
-215.7941536686191
 30
0.0
 40
3.5
  0
CIRCLE
  5
109
330
422
100
AcDbEntity
  8
PATTERN_FILL
  6
Continuous
 62
     7
100
AcDbCircle
 10
-511.5
 20
-215.7941536686191
 30
0.0
 40
3.5
  0
CIRCLE
  5
10A
330
422
100
AcDbEntity
  8
PATTERN_FILL
  6
Continuous
 62
     7
100
AcDbCircle
 10
-501.4999999999999
 20
-215.7941536686191
 30
0.0
 40
3.5
  0
CIRCLE
  5
10B
330
422
100
AcDbEntity
  8
PATTERN_FILL
  6
Continuous
 62
     7
100
AcDbCircle
 10
-491.5
 20
-215.7941536686191
 30
0.0
 40
3.5
  0
CIRCLE
  5
10C
330
422
100
AcDbEntity
  8
PATTERN_FILL
  6
Continuous
 62
     7
100
AcDbCircle
 10
-481.5
 20
-215.7941536686191
 30
0.0
 40
3.5
  0
CIRCLE
  5
10D
330
422
100
AcDbEntity
  8
PATTERN_FILL
  6
Continuous
 62
     7
100
AcDbCircle
 10
-471.4999999999999
 20
-215.7941536686191
 30
0.0
 40
3.5
  0
CIRCLE
  5
10E
330
422
100
AcDbEntity
  8
PATTERN_FILL
  6
Continuous
 62
     7
100
AcDbCircle
 10
-461.5
 20
-215.7941536686191
 30
0.0
 40
3.5
  0
ARC
  5
10F
330
422
100
AcDbEntity
  8
PATTERN_FILL
  6
Continuous
 62
     7
100
AcDbCircle
 10
-681.5000000000001
 20
-225.7941536686193
 30
0.0
 40
3.499999999999848
100
AcDbArc
 50
286.6127221664413
 51
83.58767755055055
  0
CIRCLE
  5
110
330
422
100
AcDbEntity
  8
PATTERN_FILL
  6
Continuous
 62
     7
100
AcDbCircle
 10
-671.4999999999999
 20
-225.7941536686191
 30
0.0
 40
3.5
  0
CIRCLE
  5
111
330
422
100
AcDbEntity
  8
PATTERN_FILL
  6
Continuous
 62
     7
100
AcDbCircle
 10
-661.5
 20
-225.7941536686191
 30
0.0
 40
3.5
  0
CIRCLE
  5
112
330
422
100
AcDbEntity
  8
PATTERN_FILL
  6
Continuous
 62
     7
100
AcDbCircle
 10
-651.5
 20
-225.7941536686191
 30
0.0
 40
3.5
  0
CIRCLE
  5
113
330
422
100
AcDbEntity
  8
PATTERN_FILL
  6
Continuous
 62
     7
100
AcDbCircle
 10
-641.5
 20
-225.7941536686191
 30
0.0
 40
3.5
  0
CIRCLE
  5
114
330
422
100
AcDbEntity
  8
PATTERN_FILL
  6
Continuous
 62
     7
100
AcDbCircle
 10
-631.5
 20
-225.7941536686191
 30
0.0
 40
3.5
  0
CIRCLE
  5
115
330
422
100
AcDbEntity
  8
PATTERN_FILL
  6
Continuous
 62
     7
100
AcDbCircle
 10
-621.4999999999999
 20
-225.7941536686191
 30
0.0
 40
3.5
  0
CIRCLE
  5
116
330
422
100
AcDbEntity
  8
PATTERN_FILL
  6
Continuous
 62
     7
100
AcDbCircle
 10
-611.5
 20
-225.7941536686191
 30
0.0
 40
3.5
  0
CIRCLE
  5
117
330
422
100
AcDbEntity
  8
PATTERN_FILL
  6
Continuous
 62
     7
100
AcDbCircle
 10
-601.5
 20
-225.7941536686191
 30
0.0
 40
3.5
  0
CIRCLE
  5
118
330
422
100
AcDbEntity
  8
PATTERN_FILL
  6
Continuous
 62
     7
100
AcDbCircle
 10
-591.5
 20
-225.7941536686191
 30
0.0
 40
3.5
  0
CIRCLE
  5
119
330
422
100
AcDbEntity
  8
PATTERN_FILL
  6
Continuous
 62
     7
100
AcDbCircle
 10
-581.5
 20
-225.7941536686191
 30
0.0
 40
3.5
  0
CIRCLE
  5
11A
330
422
100
AcDbEntity
  8
PATTERN_FILL
  6
Continuous
 62
     7
100
AcDbCircle
 10
-571.4999999999999
 20
-225.7941536686191
 30
0.0
 40
3.5
  0
CIRCLE
  5
11B
330
422
100
AcDbEntity
  8
PATTERN_FILL
  6
Continuous
 62
     7
100
AcDbCircle
 10
-561.5
 20
-225.7941536686191
 30
0.0
 40
3.5
  0
CIRCLE
  5
11C
330
422
100
AcDbEntity
  8
PATTERN_FILL
  6
Continuous
 62
     7
100
AcDbCircle
 10
-551.4999999999999
 20
-225.7941536686191
 30
0.0
 40
3.5
  0
CIRCLE
  5
11D
330
422
100
AcDbEntity
  8
PATTERN_FILL
  6
Continuous
 62
     7
100
AcDbCircle
 10
-541.5
 20
-225.7941536686191
 30
0.0
 40
3.5
  0
CIRCLE
  5
11E
330
422
100
AcDbEntity
  8
PATTERN_FILL
  6
Continuous
 62
     7
100
AcDbCircle
 10
-531.5
 20
-225.7941536686191
 30
0.0
 40
3.5
  0
CIRCLE
  5
11F
330
422
100
AcDbEntity
  8
PATTERN_FILL
  6
Continuous
 62
     7
100
AcDbCircle
 10
-521.4999999999999
 20
-225.7941536686191
 30
0.0
 40
3.5
  0
CIRCLE
  5
120
330
422
100
AcDbEntity
  8
PATTERN_FILL
  6
Continuous
 62
     7
100
AcDbCircle
 10
-511.5
 20
-225.7941536686191
 30
0.0
 40
3.5
  0
CIRCLE
  5
121
330
422
100
AcDbEntity
  8
PATTERN_FILL
  6
Continuous
 62
     7
100
AcDbCircle
 10
-501.4999999999999
 20
-225.7941536686191
 30
0.0
 40
3.5
  0
CIRCLE
  5
122
330
422
100
AcDbEntity
  8
PATTERN_FILL
  6
Continuous
 62
     7
100
AcDbCircle
 10
-491.5
 20
-225.7941536686191
 30
0.0
 40
3.5
  0
CIRCLE
  5
123
330
422
100
AcDbEntity
  8
PATTERN_FILL
  6
Continuous
 62
     7
100
AcDbCircle
 10
-481.5
 20
-225.7941536686191
 30
0.0
 40
3.5
  0
CIRCLE
  5
124
330
422
100
AcDbEntity
  8
PATTERN_FILL
  6
Continuous
 62
     7
100
AcDbCircle
 10
-471.4999999999999
 20
-225.7941536686191
 30
0.0
 40
3.5
  0
CIRCLE
  5
125
330
422
100
AcDbEntity
  8
PATTERN_FILL
  6
Continuous
 62
     7
100
AcDbCircle
 10
-461.5
 20
-225.7941536686191
 30
0.0
 40
3.5
  0
ARC
  5
126
330
422
100
AcDbEntity
  8
PATTERN_FILL
  6
Continuous
 62
     7
100
AcDbCircle
 10
-671.4999999999996
 20
-235.7941536686189
 30
0.0
 40
3.50000000000034
100
AcDbArc
 50
264.3727533179221
 51
181.2665144874682
  0
CIRCLE
  5
127
330
422
100
AcDbEntity
  8
PATTERN_FILL
  6
Continuous
 62
     7
100
AcDbCircle
 10
-661.5
 20
-235.7941536686192
 30
0.0
 40
3.5
  0
CIRCLE
  5
128
330
422
100
AcDbEntity
  8
PATTERN_FILL
  6
Continuous
 62
     7
100
AcDbCircle
 10
-651.5
 20
-235.7941536686192
 30
0.0
 40
3.5
  0
CIRCLE
  5
129
330
422
100
AcDbEntity
  8
PATTERN_FILL
  6
Continuous
 62
     7
100
AcDbCircle
 10
-641.5
 20
-235.7941536686192
 30
0.0
 40
3.5
  0
CIRCLE
  5
12A
330
422
100
AcDbEntity
  8
PATTERN_FILL
  6
Continuous
 62
     7
100
AcDbCircle
 10
-631.5
 20
-235.7941536686191
 30
0.0
 40
3.5
  0
CIRCLE
  5
12B
330
422
100
AcDbEntity
  8
PATTERN_FILL
  6
Continuous
 62
     7
100
AcDbCircle
 10
-621.4999999999999
 20
-235.7941536686191
 30
0.0
 40
3.5
  0
CIRCLE
  5
12C
330
422
100
AcDbEntity
  8
PATTERN_FILL
  6
Continuous
 62
     7
100
AcDbCircle
 10
-611.5
 20
-235.7941536686191
 30
0.0
 40
3.5
  0
CIRCLE
  5
12D
330
422
100
AcDbEntity
  8
PATTERN_FILL
  6
Continuous
 62
     7
100
AcDbCircle
 10
-601.5
 20
-235.7941536686191
 30
0.0
 40
3.5
  0
CIRCLE
  5
12E
330
422
100
AcDbEntity
  8
PATTERN_FILL
  6
Continuous
 62
     7
100
AcDbCircle
 10
-591.5
 20
-235.7941536686191
 30
0.0
 40
3.5
  0
CIRCLE
  5
12F
330
422
100
AcDbEntity
  8
PATTERN_FILL
  6
Continuous
 62
     7
100
AcDbCircle
 10
-581.5
 20
-235.7941536686191
 30
0.0
 40
3.5
  0
CIRCLE
  5
130
330
422
100
AcDbEntity
  8
PATTERN_FILL
  6
Continuous
 62
     7
100
AcDbCircle
 10
-571.4999999999999
 20
-235.7941536686191
 30
0.0
 40
3.5
  0
CIRCLE
  5
131
330
422
100
AcDbEntity
  8
PATTERN_FILL
  6
Continuous
 62
     7
100
AcDbCircle
 10
-561.5
 20
-235.7941536686191
 30
0.0
 40
3.5
  0
CIRCLE
  5
132
330
422
100
AcDbEntity
  8
PATTERN_FILL
  6
Continuous
 62
     7
100
AcDbCircle
 10
-551.4999999999999
 20
-235.7941536686191
 30
0.0
 40
3.5
  0
CIRCLE
  5
133
330
422
100
AcDbEntity
  8
PATTERN_FILL
  6
Continuous
 62
     7
100
AcDbCircle
 10
-541.5
 20
-235.7941536686191
 30
0.0
 40
3.5
  0
CIRCLE
  5
134
330
422
100
AcDbEntity
  8
PATTERN_FILL
  6
Continuous
 62
     7
100
AcDbCircle
 10
-531.5
 20
-235.7941536686191
 30
0.0
 40
3.5
  0
CIRCLE
  5
135
330
422
100
AcDbEntity
  8
PATTERN_FILL
  6
Continuous
 62
     7
100
AcDbCircle
 10
-521.4999999999999
 20
-235.7941536686191
 30
0.0
 40
3.5
  0
CIRCLE
  5
136
330
422
100
AcDbEntity
  8
PATTERN_FILL
  6
Continuous
 62
     7
100
AcDbCircle
 10
-511.5
 20
-235.7941536686191
 30
0.0
 40
3.5
  0
CIRCLE
  5
137
330
422
100
AcDbEntity
  8
PATTERN_FILL
  6
Continuous
 62
     7
100
AcDbCircle
 10
-501.4999999999999
 20
-235.7941536686191
 30
0.0
 40
3.5
  0
CIRCLE
  5
138
330
422
100
AcDbEntity
  8
PATTERN_FILL
  6
Continuous
 62
     7
100
AcDbCircle
 10
-491.5
 20
-235.7941536686191
 30
0.0
 40
3.5
  0
CIRCLE
  5
139
330
422
100
AcDbEntity
  8
PATTERN_FILL
  6
Continuous
 62
     7
100
AcDbCircle
 10
-481.5
 20
-235.7941536686191
 30
0.0
 40
3.5
  0
CIRCLE
  5
13A
330
422
100
AcDbEntity
  8
PATTERN_FILL
  6
Continuous
 62
     7
100
AcDbCircle
 10
-471.4999999999999
 20
-235.7941536686191
 30
0.0
 40
3.5
  0
CIRCLE
  5
13B
330
422
100
AcDbEntity
  8
PATTERN_FILL
  6
Continuous
 62
     7
100
AcDbCircle
 10
-461.5
 20
-235.7941536686191
 30
0.0
 40
3.5
  0
ARC
  5
13C
330
422
100
AcDbEntity
  8
PATTERN_FILL
  6
Continuous
 62
     7
100
AcDbCircle
 10
-661.5
 20
-245.7941536686192
 30
0.0
 40
3.499999999999968
100
AcDbArc
 50
281.545715523138
 51
179.4408035420424
  0
CIRCLE
  5
13D
330
422
100
AcDbEntity
  8
PATTERN_FILL
  6
Continuous
 62
     7
100
AcDbCircle
 10
-651.5
 20
-245.7941536686191
 30
0.0
 40
3.5
  0
CIRCLE
  5
13E
330
422
100
AcDbEntity
  8
PATTERN_FILL
  6
Continuous
 62
     7
100
AcDbCircle
 10
-641.5
 20
-245.7941536686191
 30
0.0
 40
3.5
  0
CIRCLE
  5
13F
330
422
100
AcDbEntity
  8
PATTERN_FILL
  6
Continuous
 62
     7
100
AcDbCircle
 10
-631.5
 20
-245.7941536686191
 30
0.0
 40
3.5
  0
CIRCLE
  5
140
330
422
100
AcDbEntity
  8
PATTERN_FILL
  6
Continuous
 62
     7
100
AcDbCircle
 10
-621.4999999999999
 20
-245.7941536686191
 30
0.0
 40
3.5
  0
CIRCLE
  5
141
330
422
100
AcDbEntity
  8
PATTERN_FILL
  6
Continuous
 62
     7
100
AcDbCircle
 10
-611.5
 20
-245.7941536686191
 30
0.0
 40
3.5
  0
CIRCLE
  5
142
330
422
100
AcDbEntity
  8
PATTERN_FILL
  6
Continuous
 62
     7
100
AcDbCircle
 10
-601.5
 20
-245.7941536686191
 30
0.0
 40
3.5
  0
CIRCLE
  5
143
330
422
100
AcDbEntity
  8
PATTERN_FILL
  6
Continuous
 62
     7
100
AcDbCircle
 10
-591.5
 20
-245.7941536686191
 30
0.0
 40
3.5
  0
CIRCLE
  5
144
330
422
100
AcDbEntity
  8
PATTERN_FILL
  6
Continuous
 62
     7
100
AcDbCircle
 10
-581.5
 20
-245.7941536686191
 30
0.0
 40
3.5
  0
CIRCLE
  5
145
330
422
100
AcDbEntity
  8
PATTERN_FILL
  6
Continuous
 62
     7
100
AcDbCircle
 10
-571.4999999999999
 20
-245.7941536686191
 30
0.0
 40
3.5
  0
ARC
  5
146
330
422
100
AcDbEntity
  8
PATTERN_FILL
  6
Continuous
 62
     7
100
AcDbCircle
 10
-561.5
 20
-245.794153668619
 30
0.0
 40
3.499999999999971
100
AcDbArc
 50
31.00271913387323
 51
328.9972808661252
  0
ARC
  5
147
330
422
100
AcDbEntity
  8
PATTERN_FILL
  6
Continuous
 62
     7
100
AcDbCircle
 10
-541.5
 20
-245.7941536686191
 30
0.0
 40
3.5
100
AcDbArc
 50
270.0
 51
90.0
  0
CIRCLE
  5
148
330
422
100
AcDbEntity
  8
PATTERN_FILL
  6
Continuous
 62
     7
100
AcDbCircle
 10
-531.5
 20
-245.7941536686191
 30
0.0
 40
3.5
  0
CIRCLE
  5
149
330
422
100
AcDbEntity
  8
PATTERN_FILL
  6
Continuous
 62
     7
100
AcDbCircle
 10
-521.4999999999999
 20
-245.7941536686191
 30
0.0
 40
3.5
  0
CIRCLE
  5
14A
330
422
100
AcDbEntity
  8
PATTERN_FILL
  6
Continuous
 62
     7
100
AcDbCircle
 10
-511.5
 20
-245.7941536686191
 30
0.0
 40
3.5
  0
CIRCLE
  5
14B
330
422
100
AcDbEntity
  8
PATTERN_FILL
  6
Continuous
 62
     7
100
AcDbCircle
 10
-501.4999999999999
 20
-245.7941536686191
 30
0.0
 40
3.5
  0
CIRCLE
  5
14C
330
422
100
AcDbEntity
  8
PATTERN_FILL
  6
Continuous
 62
     7
100
AcDbCircle
 10
-491.5
 20
-245.7941536686191
 30
0.0
 40
3.5
  0
CIRCLE
  5
14D
330
422
100
AcDbEntity
  8
PATTERN_FILL
  6
Continuous
 62
     7
100
AcDbCircle
 10
-481.5
 20
-245.7941536686191
 30
0.0
 40
3.5
  0
CIRCLE
  5
14E
330
422
100
AcDbEntity
  8
PATTERN_FILL
  6
Continuous
 62
     7
100
AcDbCircle
 10
-471.4999999999999
 20
-245.7941536686191
 30
0.0
 40
3.5
  0
CIRCLE
  5
14F
330
422
100
AcDbEntity
  8
PATTERN_FILL
  6
Continuous
 62
     7
100
AcDbCircle
 10
-461.5
 20
-245.7941536686191
 30
0.0
 40
3.5
  0
ARC
  5
150
330
422
100
AcDbEntity
  8
PATTERN_FILL
  6
Continuous
 62
     7
100
AcDbCircle
 10
-651.5
 20
-255.7941536686191
 30
0.0
 40
3.500000000000001
100
AcDbArc
 50
329.5549936918709
 51
146.3955427550952
  0
CIRCLE
  5
151
330
422
100
AcDbEntity
  8
PATTERN_FILL
  6
Continuous
 62
     7
100
AcDbCircle
 10
-641.5
 20
-255.7941536686191
 30
0.0
 40
3.5
  0
CIRCLE
  5
152
330
422
100
AcDbEntity
  8
PATTERN_FILL
  6
Continuous
 62
     7
100
AcDbCircle
 10
-631.5
 20
-255.7941536686191
 30
0.0
 40
3.5
  0
CIRCLE
  5
153
330
422
100
AcDbEntity
  8
PATTERN_FILL
  6
Continuous
 62
     7
100
AcDbCircle
 10
-621.4999999999999
 20
-255.7941536686191
 30
0.0
 40
3.5
  0
CIRCLE
  5
154
330
422
100
AcDbEntity
  8
PATTERN_FILL
  6
Continuous
 62
     7
100
AcDbCircle
 10
-611.5
 20
-255.7941536686191
 30
0.0
 40
3.5
  0
CIRCLE
  5
155
330
422
100
AcDbEntity
  8
PATTERN_FILL
  6
Continuous
 62
     7
100
AcDbCircle
 10
-601.5
 20
-255.7941536686191
 30
0.0
 40
3.5
  0
CIRCLE
  5
156
330
422
100
AcDbEntity
  8
PATTERN_FILL
  6
Continuous
 62
     7
100
AcDbCircle
 10
-591.5
 20
-255.7941536686191
 30
0.0
 40
3.5
  0
CIRCLE
  5
157
330
422
100
AcDbEntity
  8
PATTERN_FILL
  6
Continuous
 62
     7
100
AcDbCircle
 10
-581.5
 20
-255.7941536686191
 30
0.0
 40
3.5
  0
CIRCLE
  5
158
330
422
100
AcDbEntity
  8
PATTERN_FILL
  6
Continuous
 62
     7
100
AcDbCircle
 10
-571.4999999999999
 20
-255.7941536686191
 30
0.0
 40
3.5
  0
ARC
  5
159
330
422
100
AcDbEntity
  8
PATTERN_FILL
  6
Continuous
 62
     7
100
AcDbCircle
 10
-561.5
 20
-255.7941536686192
 30
0.0
 40
3.499999999999979
100
AcDbArc
 50
31.00271913382647
 51
328.9972808661743
  0
ARC
  5
15A
330
422
100
AcDbEntity
  8
PATTERN_FILL
  6
Continuous
 62
     7
100
AcDbCircle
 10
-541.5
 20
-255.7941536686191
 30
0.0
 40
3.5
100
AcDbArc
 50
270.0
 51
90.0
  0
CIRCLE
  5
15B
330
422
100
AcDbEntity
  8
PATTERN_FILL
  6
Continuous
 62
     7
100
AcDbCircle
 10
-531.5
 20
-255.7941536686191
 30
0.0
 40
3.5
  0
CIRCLE
  5
15C
330
422
100
AcDbEntity
  8
PATTERN_FILL
  6
Continuous
 62
     7
100
AcDbCircle
 10
-521.4999999999999
 20
-255.7941536686191
 30
0.0
 40
3.5
  0
CIRCLE
  5
15D
330
422
100
AcDbEntity
  8
PATTERN_FILL
  6
Continuous
 62
     7
100
AcDbCircle
 10
-511.5
 20
-255.7941536686191
 30
0.0
 40
3.5
  0
CIRCLE
  5
15E
330
422
100
AcDbEntity
  8
PATTERN_FILL
  6
Continuous
 62
     7
100
AcDbCircle
 10
-501.4999999999999
 20
-255.7941536686191
 30
0.0
 40
3.5
  0
CIRCLE
  5
15F
330
422
100
AcDbEntity
  8
PATTERN_FILL
  6
Continuous
 62
     7
100
AcDbCircle
 10
-491.5
 20
-255.7941536686191
 30
0.0
 40
3.5
  0
CIRCLE
  5
160
330
422
100
AcDbEntity
  8
PATTERN_FILL
  6
Continuous
 62
     7
100
AcDbCircle
 10
-481.5
 20
-255.7941536686191
 30
0.0
 40
3.5
  0
CIRCLE
  5
161
330
422
100
AcDbEntity
  8
PATTERN_FILL
  6
Continuous
 62
     7
100
AcDbCircle
 10
-471.4999999999999
 20
-255.7941536686191
 30
0.0
 40
3.5
  0
CIRCLE
  5
162
330
422
100
AcDbEntity
  8
PATTERN_FILL
  6
Continuous
 62
     7
100
AcDbCircle
 10
-461.5
 20
-255.7941536686191
 30
0.0
 40
3.5
  0
ARC
  5
163
330
422
100
AcDbEntity
  8
PATTERN_FILL
  6
Continuous
 62
     7
100
AcDbCircle
 10
-631.5
 20
-265.7941536686191
 30
0.0
 40
3.5
100
AcDbArc
 50
344.4419977757632
 51
155.2316871638705
  0
ARC
  5
164
330
422
100
AcDbEntity
  8
PATTERN_FILL
  6
Continuous
 62
     7
100
AcDbCircle
 10
-621.4999999999999
 20
-265.7941536686191
 30
0.0
 40
3.499999999999996
100
AcDbArc
 50
292.3113236142043
 51
217.5948436786693
  0
CIRCLE
  5
165
330
422
100
AcDbEntity
  8
PATTERN_FILL
  6
Continuous
 62
     7
100
AcDbCircle
 10
-611.5
 20
-265.7941536686191
 30
0.0
 40
3.5
  0
CIRCLE
  5
166
330
422
100
AcDbEntity
  8
PATTERN_FILL
  6
Continuous
 62
     7
100
AcDbCircle
 10
-601.5
 20
-265.7941536686191
 30
0.0
 40
3.5
  0
CIRCLE
  5
167
330
422
100
AcDbEntity
  8
PATTERN_FILL
  6
Continuous
 62
     7
100
AcDbCircle
 10
-591.5
 20
-265.7941536686191
 30
0.0
 40
3.5
  0
CIRCLE
  5
168
330
422
100
AcDbEntity
  8
PATTERN_FILL
  6
Continuous
 62
     7
100
AcDbCircle
 10
-581.5
 20
-265.7941536686191
 30
0.0
 40
3.5
  0
CIRCLE
  5
169
330
422
100
AcDbEntity
  8
PATTERN_FILL
  6
Continuous
 62
     7
100
AcDbCircle
 10
-571.4999999999999
 20
-265.7941536686191
 30
0.0
 40
3.5
  0
ARC
  5
16A
330
422
100
AcDbEntity
  8
PATTERN_FILL
  6
Continuous
 62
     7
100
AcDbCircle
 10
-561.5
 20
-265.7941536686191
 30
0.0
 40
3.499999999999949
100
AcDbArc
 50
357.0501338624504
 51
218.5848466901517
  0
ARC
  5
16B
330
422
100
AcDbEntity
  8
PATTERN_FILL
  6
Continuous
 62
     7
100
AcDbCircle
 10
-551.4999999999998
 20
-265.7941536686192
 30
0.0
 40
3.499999999999992
100
AcDbArc
 50
51.399192670592
 51
163.5081154859256
  0
ARC
  5
16C
330
422
100
AcDbEntity
  8
PATTERN_FILL
  6
Continuous
 62
     7
100
AcDbCircle
 10
-491.5
 20
-265.7941536686191
 30
0.0
 40
3.500000000000036
100
AcDbArc
 50
12.02574572667528
 51
133.1913943799415
  0
ARC
  5
16D
330
422
100
AcDbEntity
  8
PATTERN_FILL
  6
Continuous
 62
     7
100
AcDbCircle
 10
-481.5
 20
-265.7941536686191
 30
0.0
 40
3.500000000000012
100
AcDbArc
 50
308.2787062309931
 51
186.5344708805197
  0
CIRCLE
  5
16E
330
422
100
AcDbEntity
  8
PATTERN_FILL
  6
Continuous
 62
     7
100
AcDbCircle
 10
-471.4999999999999
 20
-265.7941536686191
 30
0.0
 40
3.5
  0
CIRCLE
  5
16F
330
422
100
AcDbEntity
  8
PATTERN_FILL
  6
Continuous
 62
     7
100
AcDbCircle
 10
-461.5
 20
-265.7941536686191
 30
0.0
 40
3.5
  0
ARC
  5
170
330
422
100
AcDbEntity
  8
PATTERN_FILL
  6
Continuous
 62
     7
100
AcDbCircle
 10
-471.4999999999999
 20
-275.7941536686191
 30
0.0
 40
3.500000000000042
100
AcDbArc
 50
24.75345997936757
 51
95.14151276884446
  0
ARC
  5
171
330
422
100
AcDbEntity
  8
PATTERN_FILL
  6
Continuous
 62
     7
100
AcDbCircle
 10
-461.5
 20
-275.7941536686191
 30
0.0
 40
3.50000000000002
100
AcDbArc
 50
279.4355675079307
 51
191.0983731937294
  0
ARC
  5
172
330
422
100
AcDbEntity
  8
PATTERN_FILL
  6
Continuous
 62
     7
100
AcDbCircle
 10
-551.1913275447157
 20
-115.3002777401636
 30
0.0
 40
3.5
100
AcDbArc
 50
192.8574337997143
 51
347.8407307722508
  0
CIRCLE
  5
173
330
422
100
AcDbEntity
  8
PATTERN_FILL
  6
Continuous
 62
     7
100
AcDbCircle
 10
-344.6575049562124
 20
-180.4999999996221
 30
0.0
 40
3.5
  0
CIRCLE
  5
174
330
422
100
AcDbEntity
  8
PATTERN_FILL
  6
Continuous
 62
     7
100
AcDbCircle
 10
-344.6575049562124
 20
-190.4999999996221
 30
0.0
 40
3.5
  0
CIRCLE
  5
175
330
422
100
AcDbEntity
  8
PATTERN_FILL
  6
Continuous
 62
     7
100
AcDbCircle
 10
-344.6575049562124
 20
-200.4999999996222
 30
0.0
 40
3.5
  0
CIRCLE
  5
176
330
422
100
AcDbEntity
  8
PATTERN_FILL
  6
Continuous
 62
     7
100
AcDbCircle
 10
-344.6575049562124
 20
-210.4999999996222
 30
0.0
 40
3.5
  0
CIRCLE
  5
177
330
422
100
AcDbEntity
  8
PATTERN_FILL
  6
Continuous
 62
     7
100
AcDbCircle
 10
-344.6575049562124
 20
-220.4999999996222
 30
0.0
 40
3.5
  0
CIRCLE
  5
178
330
422
100
AcDbEntity
  8
PATTERN_FILL
  6
Continuous
 62
     7
100
AcDbCircle
 10
-344.6575049562124
 20
-230.4999999996222
 30
0.0
 40
3.5
  0
CIRCLE
  5
179
330
422
100
AcDbEntity
  8
PATTERN_FILL
  6
Continuous
 62
     7
100
AcDbCircle
 10
-344.6575049562124
 20
-240.4999999996221
 30
0.0
 40
3.5
  0
CIRCLE
  5
17A
330
422
100
AcDbEntity
  8
PATTERN_FILL
  6
Continuous
 62
     7
100
AcDbCircle
 10
-344.6575049562124
 20
-250.4999999996222
 30
0.0
 40
3.5
  0
CIRCLE
  5
17B
330
422
100
AcDbEntity
  8
PATTERN_FILL
  6
Continuous
 62
     7
100
AcDbCircle
 10
-344.6575049562124
 20
-260.4999999996222
 30
0.0
 40
3.5
  0
CIRCLE
  5
17C
330
422
100
AcDbEntity
  8
PATTERN_FILL
  6
Continuous
 62
     7
100
AcDbCircle
 10
-344.6575049562124
 20
-270.4999999996222
 30
0.0
 40
3.5
  0
CIRCLE
  5
17D
330
422
100
AcDbEntity
  8
PATTERN_FILL
  6
Continuous
 62
     7
100
AcDbCircle
 10
-344.6575049562124
 20
-280.4999999996222
 30
0.0
 40
3.5
  0
CIRCLE
  5
17E
330
422
100
AcDbEntity
  8
PATTERN_FILL
  6
Continuous
 62
     7
100
AcDbCircle
 10
-344.6575049562124
 20
-290.4999999996222
 30
0.0
 40
3.5
  0
CIRCLE
  5
17F
330
422
100
AcDbEntity
  8
PATTERN_FILL
  6
Continuous
 62
     7
100
AcDbCircle
 10
-344.6575049562124
 20
-300.4999999996222
 30
0.0
 40
3.5
  0
CIRCLE
  5
180
330
422
100
AcDbEntity
  8
PATTERN_FILL
  6
Continuous
 62
     7
100
AcDbCircle
 10
-344.6575049562124
 20
-310.4999999996222
 30
0.0
 40
3.5
  0
CIRCLE
  5
181
330
422
100
AcDbEntity
  8
PATTERN_FILL
  6
Continuous
 62
     7
100
AcDbCircle
 10
-344.6575049562124
 20
-320.4999999996222
 30
0.0
 40
3.5
  0
CIRCLE
  5
182
330
422
100
AcDbEntity
  8
PATTERN_FILL
  6
Continuous
 62
     7
100
AcDbCircle
 10
-344.6575049562124
 20
-330.4999999996222
 30
0.0
 40
3.5
  0
CIRCLE
  5
183
330
422
100
AcDbEntity
  8
PATTERN_FILL
  6
Continuous
 62
     7
100
AcDbCircle
 10
-344.6575049562124
 20
-340.4999999996222
 30
0.0
 40
3.5
  0
CIRCLE
  5
184
330
422
100
AcDbEntity
  8
PATTERN_FILL
  6
Continuous
 62
     7
100
AcDbCircle
 10
-344.6575049562124
 20
-350.4999999996222
 30
0.0
 40
3.5
  0
ARC
  5
185
330
422
100
AcDbEntity
  8
PATTERN_FILL
  6
Continuous
 62
     7
100
AcDbCircle
 10
-344.6575049562126
 20
-360.4999999996222
 30
0.0
 40
3.499999999999963
100
AcDbArc
 50
220.4701418242974
 51
177.5810702508396
  0
ARC
  5
186
330
422
100
AcDbEntity
  8
PATTERN_FILL
  6
Continuous
 62
     7
100
AcDbCircle
 10
-344.6575049562124
 20
-370.4999999996222
 30
0.0
 40
3.499999999999932
100
AcDbArc
 50
289.0617043877415
 51
108.989507687395
  0
CIRCLE
  5
187
330
422
100
AcDbEntity
  8
PATTERN_FILL
  6
Continuous
 62
     7
100
AcDbCircle
 10
-344.6575049562124
 20
-150.4999999996221
 30
0.0
 40
3.5
  0
CIRCLE
  5
188
330
422
100
AcDbEntity
  8
PATTERN_FILL
  6
Continuous
 62
     7
100
AcDbCircle
 10
-344.6575049562124
 20
-160.4999999996221
 30
0.0
 40
3.5
  0
CIRCLE
  5
189
330
422
100
AcDbEntity
  8
PATTERN_FILL
  6
Continuous
 62
     7
100
AcDbCircle
 10
-344.6575049562124
 20
-170.4999999996221
 30
0.0
 40
3.5
  0
CIRCLE
  5
18A
330
422
100
AcDbEntity
  8
PATTERN_FILL
  6
Continuous
 62
     7
100
AcDbCircle
 10
-344.6575049562124
 20
-140.4999999996221
 30
0.0
 40
3.5
  0
ARC
  5
18B
330
422
100
AcDbEntity
  8
PATTERN_FILL
  6
Continuous
 62
     7
100
AcDbCircle
 10
-344.6575049562124
 20
-130.4999999996221
 30
0.0
 40
3.500000000000007
100
AcDbArc
 50
245.666362643769
 51
76.28242528109246
  0
ARC
  5
18C
330
422
100
AcDbEntity
  8
PATTERN_FILL
  6
Continuous
 62
     7
100
AcDbCircle
 10
-344.6575049562124
 20
-120.4999999996221
 30
0.0
 40
3.499999999999995
100
AcDbArc
 50
307.9976739298265
 51
13.95111399503611
  0
ARC
  5
18D
330
422
100
AcDbEntity
  8
PATTERN_FILL
  6
Continuous
 62
     7
100
AcDbCircle
 10
-451.4999999999984
 20
-155.7941536686177
 30
0.0
 40
3.500000000001375
100
AcDbArc
 50
175.3075152772084
 51
272.1394104368056
  0
CIRCLE
  5
18E
330
422
100
AcDbEntity
  8
PATTERN_FILL
  6
Continuous
 62
     7
100
AcDbCircle
 10
-451.4999999999999
 20
-165.7941536686191
 30
0.0
 40
3.5
  0
CIRCLE
  5
18F
330
422
100
AcDbEntity
  8
PATTERN_FILL
  6
Continuous
 62
     7
100
AcDbCircle
 10
-451.4999999999999
 20
-175.7941536686191
 30
0.0
 40
3.5
  0
ARC
  5
190
330
422
100
AcDbEntity
  8
PATTERN_FILL
  6
Continuous
 62
     7
100
AcDbCircle
 10
-441.5
 20
-175.7941536686191
 30
0.0
 40
3.500000000000044
100
AcDbArc
 50
78.09075000026521
 51
350.6476389510521
  0
CIRCLE
  5
191
330
422
100
AcDbEntity
  8
PATTERN_FILL
  6
Continuous
 62
     7
100
AcDbCircle
 10
-451.4999999999999
 20
-185.7941536686191
 30
0.0
 40
3.5
  0
CIRCLE
  5
192
330
422
100
AcDbEntity
  8
PATTERN_FILL
  6
Continuous
 62
     7
100
AcDbCircle
 10
-441.5
 20
-185.7941536686191
 30
0.0
 40
3.5
  0
ARC
  5
193
330
422
100
AcDbEntity
  8
PATTERN_FILL
  6
Continuous
 62
     7
100
AcDbCircle
 10
-431.5
 20
-185.7941536686191
 30
0.0
 40
3.500000000000023
100
AcDbArc
 50
131.9904149506423
 51
284.9091581110181
  0
CIRCLE
  5
194
330
422
100
AcDbEntity
  8
PATTERN_FILL
  6
Continuous
 62
     7
100
AcDbCircle
 10
-451.4999999999999
 20
-195.7941536686191
 30
0.0
 40
3.5
  0
CIRCLE
  5
195
330
422
100
AcDbEntity
  8
PATTERN_FILL
  6
Continuous
 62
     7
100
AcDbCircle
 10
-441.5
 20
-195.7941536686191
 30
0.0
 40
3.5
  0
CIRCLE
  5
196
330
422
100
AcDbEntity
  8
PATTERN_FILL
  6
Continuous
 62
     7
100
AcDbCircle
 10
-431.5
 20
-195.7941536686191
 30
0.0
 40
3.5
  0
CIRCLE
  5
197
330
422
100
AcDbEntity
  8
PATTERN_FILL
  6
Continuous
 62
     7
100
AcDbCircle
 10
-451.4999999999999
 20
-205.7941536686191
 30
0.0
 40
3.5
  0
CIRCLE
  5
198
330
422
100
AcDbEntity
  8
PATTERN_FILL
  6
Continuous
 62
     7
100
AcDbCircle
 10
-441.5
 20
-205.7941536686191
 30
0.0
 40
3.5
  0
CIRCLE
  5
199
330
422
100
AcDbEntity
  8
PATTERN_FILL
  6
Continuous
 62
     7
100
AcDbCircle
 10
-431.5
 20
-205.7941536686191
 30
0.0
 40
3.5
  0
ARC
  5
19A
330
422
100
AcDbEntity
  8
PATTERN_FILL
  6
Continuous
 62
     7
100
AcDbCircle
 10
-421.4999999999999
 20
-205.7941536686191
 30
0.0
 40
3.499999999999968
100
AcDbArc
 50
142.3131751492198
 51
255.6547312303345
  0
CIRCLE
  5
19B
330
422
100
AcDbEntity
  8
PATTERN_FILL
  6
Continuous
 62
     7
100
AcDbCircle
 10
-451.4999999999999
 20
-215.7941536686191
 30
0.0
 40
3.5
  0
CIRCLE
  5
19C
330
422
100
AcDbEntity
  8
PATTERN_FILL
  6
Continuous
 62
     7
100
AcDbCircle
 10
-441.5
 20
-215.7941536686191
 30
0.0
 40
3.5
  0
CIRCLE
  5
19D
330
422
100
AcDbEntity
  8
PATTERN_FILL
  6
Continuous
 62
     7
100
AcDbCircle
 10
-431.5
 20
-215.7941536686191
 30
0.0
 40
3.5
  0
ARC
  5
19E
330
422
100
AcDbEntity
  8
PATTERN_FILL
  6
Continuous
 62
     7
100
AcDbCircle
 10
-421.4999999999999
 20
-215.7941536686191
 30
0.0
 40
3.500000000000016
100
AcDbArc
 50
88.59269608559388
 51
301.2194957937327
  0
CIRCLE
  5
19F
330
422
100
AcDbEntity
  8
PATTERN_FILL
  6
Continuous
 62
     7
100
AcDbCircle
 10
-451.4999999999999
 20
-225.7941536686191
 30
0.0
 40
3.5
  0
CIRCLE
  5
1A0
330
422
100
AcDbEntity
  8
PATTERN_FILL
  6
Continuous
 62
     7
100
AcDbCircle
 10
-441.5
 20
-225.7941536686191
 30
0.0
 40
3.5
  0
CIRCLE
  5
1A1
330
422
100
AcDbEntity
  8
PATTERN_FILL
  6
Continuous
 62
     7
100
AcDbCircle
 10
-431.5
 20
-225.7941536686191
 30
0.0
 40
3.5
  0
ARC
  5
1A2
330
422
100
AcDbEntity
  8
PATTERN_FILL
  6
Continuous
 62
     7
100
AcDbCircle
 10
-421.5000000000001
 20
-225.794153668619
 30
0.0
 40
3.50000000000013
100
AcDbArc
 50
33.17910062074655
 51
348.1567630421532
  0
CIRCLE
  5
1A3
330
422
100
AcDbEntity
  8
PATTERN_FILL
  6
Continuous
 62
     7
100
AcDbCircle
 10
-451.4999999999999
 20
-235.7941536686191
 30
0.0
 40
3.5
  0
CIRCLE
  5
1A4
330
422
100
AcDbEntity
  8
PATTERN_FILL
  6
Continuous
 62
     7
100
AcDbCircle
 10
-441.5
 20
-235.7941536686191
 30
0.0
 40
3.5
  0
CIRCLE
  5
1A5
330
422
100
AcDbEntity
  8
PATTERN_FILL
  6
Continuous
 62
     7
100
AcDbCircle
 10
-431.5
 20
-235.7941536686191
 30
0.0
 40
3.5
  0
CIRCLE
  5
1A6
330
422
100
AcDbEntity
  8
PATTERN_FILL
  6
Continuous
 62
     7
100
AcDbCircle
 10
-421.4999999999999
 20
-235.7941536686191
 30
0.0
 40
3.5
  0
CIRCLE
  5
1A7
330
422
100
AcDbEntity
  8
PATTERN_FILL
  6
Continuous
 62
     7
100
AcDbCircle
 10
-451.4999999999999
 20
-245.7941536686191
 30
0.0
 40
3.5
  0
CIRCLE
  5
1A8
330
422
100
AcDbEntity
  8
PATTERN_FILL
  6
Continuous
 62
     7
100
AcDbCircle
 10
-441.5
 20
-245.7941536686191
 30
0.0
 40
3.5
  0
CIRCLE
  5
1A9
330
422
100
AcDbEntity
  8
PATTERN_FILL
  6
Continuous
 62
     7
100
AcDbCircle
 10
-431.5
 20
-245.7941536686191
 30
0.0
 40
3.5
  0
CIRCLE
  5
1AA
330
422
100
AcDbEntity
  8
PATTERN_FILL
  6
Continuous
 62
     7
100
AcDbCircle
 10
-421.4999999999999
 20
-245.7941536686191
 30
0.0
 40
3.5
  0
CIRCLE
  5
1AB
330
422
100
AcDbEntity
  8
PATTERN_FILL
  6
Continuous
 62
     7
100
AcDbCircle
 10
-451.4999999999999
 20
-255.7941536686191
 30
0.0
 40
3.5
  0
CIRCLE
  5
1AC
330
422
100
AcDbEntity
  8
PATTERN_FILL
  6
Continuous
 62
     7
100
AcDbCircle
 10
-441.5
 20
-255.7941536686191
 30
0.0
 40
3.5
  0
CIRCLE
  5
1AD
330
422
100
AcDbEntity
  8
PATTERN_FILL
  6
Continuous
 62
     7
100
AcDbCircle
 10
-431.5
 20
-255.7941536686191
 30
0.0
 40
3.5
  0
CIRCLE
  5
1AE
330
422
100
AcDbEntity
  8
PATTERN_FILL
  6
Continuous
 62
     7
100
AcDbCircle
 10
-421.4999999999999
 20
-255.7941536686191
 30
0.0
 40
3.5
  0
CIRCLE
  5
1AF
330
422
100
AcDbEntity
  8
PATTERN_FILL
  6
Continuous
 62
     7
100
AcDbCircle
 10
-451.4999999999999
 20
-265.7941536686191
 30
0.0
 40
3.5
  0
CIRCLE
  5
1B0
330
422
100
AcDbEntity
  8
PATTERN_FILL
  6
Continuous
 62
     7
100
AcDbCircle
 10
-441.5
 20
-265.7941536686191
 30
0.0
 40
3.5
  0
CIRCLE
  5
1B1
330
422
100
AcDbEntity
  8
PATTERN_FILL
  6
Continuous
 62
     7
100
AcDbCircle
 10
-431.5
 20
-265.7941536686191
 30
0.0
 40
3.5
  0
CIRCLE
  5
1B2
330
422
100
AcDbEntity
  8
PATTERN_FILL
  6
Continuous
 62
     7
100
AcDbCircle
 10
-421.4999999999999
 20
-265.7941536686191
 30
0.0
 40
3.5
  0
CIRCLE
  5
1B3
330
422
100
AcDbEntity
  8
PATTERN_FILL
  6
Continuous
 62
     7
100
AcDbCircle
 10
-451.4999999999999
 20
-275.7941536686191
 30
0.0
 40
3.5
  0
CIRCLE
  5
1B4
330
422
100
AcDbEntity
  8
PATTERN_FILL
  6
Continuous
 62
     7
100
AcDbCircle
 10
-441.5
 20
-275.7941536686191
 30
0.0
 40
3.5
  0
CIRCLE
  5
1B5
330
422
100
AcDbEntity
  8
PATTERN_FILL
  6
Continuous
 62
     7
100
AcDbCircle
 10
-431.5
 20
-275.7941536686191
 30
0.0
 40
3.5
  0
ARC
  5
1B6
330
422
100
AcDbEntity
  8
PATTERN_FILL
  6
Continuous
 62
     7
100
AcDbCircle
 10
-421.5
 20
-275.794153668619
 30
0.0
 40
3.500000000000015
100
AcDbArc
 50
22.02289686499547
 51
315.2765161435735
  0
ARC
  5
1B7
330
422
100
AcDbEntity
  8
PATTERN_FILL
  6
Continuous
 62
     7
100
AcDbCircle
 10
-451.4999999999999
 20
-285.7941536686191
 30
0.0
 40
3.500000000000026
100
AcDbArc
 50
301.9181419482649
 51
153.3086101221731
  0
CIRCLE
  5
1B8
330
422
100
AcDbEntity
  8
PATTERN_FILL
  6
Continuous
 62
     7
100
AcDbCircle
 10
-441.5
 20
-285.7941536686191
 30
0.0
 40
3.5
  0
CIRCLE
  5
1B9
330
422
100
AcDbEntity
  8
PATTERN_FILL
  6
Continuous
 62
     7
100
AcDbCircle
 10
-431.5
 20
-285.7941536686191
 30
0.0
 40
3.5
  0
ARC
  5
1BA
330
422
100
AcDbEntity
  8
PATTERN_FILL
  6
Continuous
 62
     7
100
AcDbCircle
 10
-421.4999999999999
 20
-285.7941536686191
 30
0.0
 40
3.500000000000005
100
AcDbArc
 50
65.17306196311274
 51
263.69618497765
  0
ARC
  5
1BB
330
422
100
AcDbEntity
  8
PATTERN_FILL
  6
Continuous
 62
     7
100
AcDbCircle
 10
-441.5
 20
-295.7941536686191
 30
0.0
 40
3.500000000000015
100
AcDbArc
 50
288.8477371632575
 51
150.8840119811416
  0
CIRCLE
  5
1BC
330
422
100
AcDbEntity
  8
PATTERN_FILL
  6
Continuous
 62
     7
100
AcDbCircle
 10
-431.5
 20
-295.7941536686191
 30
0.0
 40
3.5
  0
ARC
  5
1BD
330
422
100
AcDbEntity
  8
PATTERN_FILL
  6
Continuous
 62
     7
100
AcDbCircle
 10
-421.4999999999999
 20
-295.7941536686191
 30
0.0
 40
3.499999999999992
100
AcDbArc
 50
114.5745604183089
 51
206.1958735401764
  0
ARC
  5
1BE
330
422
100
AcDbEntity
  8
PATTERN_FILL
  6
Continuous
 62
     7
100
AcDbCircle
 10
-431.5
 20
-305.7941536686192
 30
0.0
 40
3.499999999999968
100
AcDbArc
 50
225.7695066224373
 51
304.1068445736033
  0
ARC
  5
1BF
330
422
100
AcDbEntity
  8
PATTERN_FILL
  6
Continuous
 62
     7
100
AcDbCircle
 10
-431.5
 20
-305.7941536686192
 30
0.0
 40
3.499999999999902
100
AcDbArc
 50
5.467596728325771
 51
198.8326809962917
  0
TEXT
  5
1C0
330
422
100
AcDbEntity
  8
SPEC
 62
     7
100
AcDbText
 10
-712.4999999999999
 20
1385.719034999999
 30
0.0
 40
24.4326171875
  1
仕様
 41
0.7
 11
-712.4999999999999
 21
1410.151652187499
 31
0.0
100
AcDbText
 73
     3
  0
LINE
  5
1C1
330
422
100
AcDbEntity
  8
SPEC
  6
Continuous
 62
     7
100
AcDbLine
 10
-725.0
 20
1371.786335
 30
0.0
 11
756.25
 21
1371.786335
 31
0.0
  0
LINE
  5
1C2
330
422
100
AcDbEntity
  8
SPEC
  6
Continuous
 62
     7
100
AcDbLine
 10
-725.0
 20
1334.286335
 30
0.0
 11
756.25
 21
1334.286335
 31
0.0
  0
LINE
  5
1C3
330
422
100
AcDbEntity
  8
SPEC
  6
Continuous
 62
     7
100
AcDbLine
 10
-725.0
 20
1184.286335
 30
0.0
 11
756.25
 21
1184.286335
 31
0.0
  0
LINE
  5
1C4
330
422
100
AcDbEntity
  8
SPEC
  6
Continuous
 62
     7
100
AcDbLine
 10
-725.0
 20
1221.786335
 30
0.0
 11
756.25
 21
1221.786335
 31
0.0
  0
LINE
  5
1C5
330
422
100
AcDbEntity
  8
SPEC
  6
Continuous
 62
     7
100
AcDbLine
 10
-725.0
 20
1259.286335
 30
0.0
 11
756.25
 21
1259.286335
 31
0.0
  0
LINE
  5
1C6
330
422
100
AcDbEntity
  8
SPEC
  6
Continuous
 62
     7
100
AcDbLine
 10
-725.0
 20
1146.786335
 30
0.0
 11
756.25
 21
1146.786335
 31
0.0
  0
LINE
  5
1C7
330
422
100
AcDbEntity
  8
SPEC
  6
Continuous
 62
     7
100
AcDbLine
 10
-725.0
 20
1071.786335
 30
0.0
 11
756.25
 21
1071.786335
 31
0.0
  0
LINE
  5
1C8
330
422
100
AcDbEntity
  8
SPEC
  6
Continuous
 62
     7
100
AcDbLine
 10
-384.375
 20
1109.286335
 30
0.0
 11
756.25
 21
1109.286335
 31
0.0
  0
LINE
  5
1C9
330
422
100
AcDbEntity
  8
SPEC
  6
Continuous
 62
     7
100
AcDbLine
 10
-725.0
 20
996.786335
 30
0.0
 11
756.25
 21
996.786335
 31
0.0
  0
LINE
  5
1CA
330
422
100
AcDbEntity
  8
SPEC
  6
Continuous
 62
     7
100
AcDbLine
 10
-725.0
 20
1296.786335
 30
0.0
 11
756.25
 21
1296.786335
 31
0.0
  0
LINE
  5
1CB
330
422
100
AcDbEntity
  8
SPEC
  6
Continuous
 62
     7
100
AcDbLine
 10
-725.0
 20
921.786335
 30
0.0
 11
756.25
 21
921.786335
 31
0.0
  0
LINE
  5
1CC
330
422
100
AcDbEntity
  8
SPEC
  6
Continuous
 62
     7
100
AcDbLine
 10
-725.0
 20
846.7863350000001
 30
0.0
 11
756.25
 21
846.7863350000001
 31
0.0
  0
LINE
  5
1CD
330
422
100
AcDbEntity
  8
SPEC
  6
Continuous
 62
     7
100
AcDbLine
 10
-725.0
 20
1371.786335
 30
0.0
 11
-725.0
 21
771.7863350000001
 31
0.0
  0
LINE
  5
1CE
330
422
100
AcDbEntity
  8
SPEC
  6
Continuous
 62
     7
100
AcDbLine
 10
-306.25
 20
1371.786335
 30
0.0
 11
-306.25
 21
771.7863350000001
 31
0.0
  0
TEXT
  5
1CF
330
422
100
AcDbEntity
  8
SPEC
 62
     7
100
AcDbText
 10
-715.9999999999996
 20
1342.165528777777
 30
0.0
 40
19.0031125
  1
周波数レンジ(-10dB)
 41
0.7
 11
-715.9999999999996
 21
1361.168641277777
 31
0.0
100
AcDbText
 73
     3
  0
TEXT
  5
1D0
330
422
100
AcDbEntity
  8
SPEC
 62
     7
100
AcDbText
 10
-297.2500000000001
 20
1342.165528777777
 30
0.0
 40
19.0031125
  1
58Hz～18kHz
 41
0.7
 11
-297.2500000000001
 21
1361.168641277777
 31
0.0
100
AcDbText
 73
     3
  0
LINE
  5
1D1
330
422
100
AcDbEntity
  8
SPEC
  6
Continuous
 62
     7
100
AcDbLine
 10
-725.0
 20
959.286335
 30
0.0
 11
756.25
 21
959.286335
 31
0.0
  0
LINE
  5
1D2
330
422
100
AcDbEntity
  8
SPEC
  6
Continuous
 62
     7
100
AcDbLine
 10
-725.0
 20
884.2863350000001
 30
0.0
 11
756.25
 21
884.2863350000001
 31
0.0
  0
TEXT
  5
1D3
330
422
100
AcDbEntity
  8
SPEC
 62
     7
100
AcDbText
 10
-715.9999999999996
 20
1229.665512777778
 30
0.0
 40
19.00314670138889
  1
感度
 41
0.7
 11
-715.9999999999996
 21
1248.668659479166
 31
0.0
100
AcDbText
 73
     3
  0
TEXT
  5
1D4
330
422
100
AcDbEntity
  8
SPEC
 62
     7
100
AcDbText
 10
-715.9999999999996
 20
1117.165512777777
 30
0.0
 40
19.00314670138889
  1
トランス・タップ
 41
0.7
 11
-715.9999999999996
 21
1136.168659479166
 31
0.0
100
AcDbText
 73
     3
  0
TEXT
  5
1D5
330
422
100
AcDbEntity
  8
SPEC
 62
     7
100
AcDbText
 10
-715.9999999999996
 20
1042.165512777777
 30
0.0
 40
19.00314670138889
  1
ドライバー構成
 41
0.7
 11
-715.9999999999996
 21
1061.168659479166
 31
0.0
100
AcDbText
 73
     3
  0
TEXT
  5
1D6
330
422
100
AcDbEntity
  8
SPEC
 62
     7
100
AcDbText
 10
-715.9999999999996
 20
1304.665512777777
 30
0.0
 40
19.00314670138889
  1
カバレージ角(1.5～10kHz平均)
 41
0.7
 11
-715.9999999999996
 21
1323.668659479166
 31
0.0
100
AcDbText
 73
     3
  0
TEXT
  5
1D7
330
422
100
AcDbEntity
  8
SPEC
 62
     7
100
AcDbText
 10
-715.9999999999996
 20
1192.165512777777
 30
0.0
 40
19.00314670138889
  1
最大音圧レベル
 41
0.7
 11
-715.9999999999996
 21
1211.168659479166
 31
0.0
100
AcDbText
 73
     3
  0
TEXT
  5
1D8
330
422
100
AcDbEntity
  8
SPEC
 62
     7
100
AcDbText
 10
-715.9999999999996
 20
929.6655127777775
 30
0.0
 40
19.00314670138889
  1
端子(入力/ループスルー)
 41
0.7
 11
-715.9999999999996
 21
948.6686594791663
 31
0.0
100
AcDbText
 73
     3
  0
TEXT
  5
1D9
330
422
100
AcDbEntity
  8
SPEC
 62
     7
100
AcDbText
 10
-715.9999999999996
 20
1267.165512777778
 30
0.0
 40
19.00314670138889
  1
許容入力(プログラム/ピンク)※ 
 41
0.7
 11
-715.9999999999996
 21
1286.168659479166
 31
0.0
100
AcDbText
 73
     3
  0
TEXT
  5
1DA
330
422
100
AcDbEntity
  8
SPEC
 62
     7
100
AcDbText
 10
-297.2500000000001
 20
929.6655127777775
 30
0.0
 40
19.00314670138889
  1
ユーロブロック
 41
0.7
 11
-297.2500000000001
 21
948.6686594791663
 31
0.0
100
AcDbText
 73
     3
  0
TEXT
  5
1DB
330
422
100
AcDbEntity
  8
SPEC
 62
     7
100
AcDbText
 10
-715.9999999999996
 20
892.1655127777775
 30
0.0
 40
19.00314670138889
  1
寸法(φ×H)
 41
0.7
 11
-715.9999999999996
 21
911.1686594791663
 31
0.0
100
AcDbText
 73
     3
  0
TEXT
  5
1DC
330
422
100
AcDbEntity
  8
SPEC
 62
     7
100
AcDbText
 10
-715.9999999999996
 20
854.6655127777773
 30
0.0
 40
19.00314670138889
  1
質量
 41
0.7
 11
-715.9999999999996
 21
873.6686594791663
 31
0.0
100
AcDbText
 73
     3
  0
TEXT
  5
1DD
330
422
100
AcDbEntity
  8
SPEC
 62
     7
100
AcDbText
 10
-297.2500000000001
 20
892.1655127777775
 30
0.0
 40
19.00314670138889
  1
312×330mm(除突起部) 
 41
0.7
 11
-297.2500000000001
 21
911.1686594791663
 31
0.0
100
AcDbText
 73
     3
  0
TEXT
  5
1DE
330
422
100
AcDbEntity
  8
SPEC
 62
     7
100
AcDbText
 10
-715.9999999999996
 20
1154.665512777778
 30
0.0
 40
19.00314670138889
  1
公称インピーダンス
 41
0.7
 11
-715.9999999999996
 21
1173.668659479166
 31
0.0
100
AcDbText
 73
     3
  0
TEXT
  5
1DF
330
422
100
AcDbEntity
  8
SPEC
 62
     7
100
AcDbText
 10
-297.2500000000001
 20
1079.665512777777
 30
0.0
 40
19.00314670138889
  1
60W、30W、15W、7.5W
 41
0.7
 11
-297.2500000000001
 21
1098.668659479166
 31
0.0
100
AcDbText
 73
     3
  0
TEXT
  5
1E0
330
422
100
AcDbEntity
  8
SPEC
 62
     7
100
AcDbText
 10
-715.9999999999996
 20
967.1655127777775
 30
0.0
 40
19.00314670138889
  1
色
 41
0.7
 11
-715.9999999999996
 21
986.1686594791663
 31
0.0
100
AcDbText
 73
     3
  0
TEXT
  5
1E1
330
422
100
AcDbEntity
  8
SPEC
 62
     7
100
AcDbText
 10
-297.2500000000001
 20
1304.665512777777
 30
0.0
 40
19.00314670138889
  1
120°(+20°/-10°)
 41
0.7
 11
-297.2500000000001
 21
1323.668659479166
 31
0.0
100
AcDbText
 73
     3
  0
TEXT
  5
1E2
330
422
100
AcDbEntity
  8
SPEC
 62
     7
100
AcDbText
 10
-297.2500000000001
 20
1267.165512777778
 30
0.0
 40
19.00314670138889
  1
150W/75W
 41
0.7
 11
-297.2500000000001
 21
1286.168659479166
 31
0.0
100
AcDbText
 73
     3
  0
TEXT
  5
1E3
330
422
100
AcDbEntity
  8
SPEC
 62
     7
100
AcDbText
 10
-297.2500000000001
 20
1229.665512777778
 30
0.0
 40
19.00314670138889
  1
90dB SPL
 41
0.7
 11
-297.2500000000001
 21
1248.668659479166
 31
0.0
100
AcDbText
 73
     3
  0
TEXT
  5
1E4
330
422
100
AcDbEntity
  8
SPEC
 62
     7
100
AcDbText
 10
-297.2500000000001
 20
1192.165512777777
 30
0.0
 40
19.00314670138889
  1
109dB SPL
 41
0.7
 11
-297.2500000000001
 21
1211.168659479166
 31
0.0
100
AcDbText
 73
     3
  0
TEXT
  5
1E5
330
422
100
AcDbEntity
  8
SPEC
 62
     7
100
AcDbText
 10
-297.2500000000001
 20
1154.665512777778
 30
0.0
 40
19.00314670138889
  1
8Ω
 41
0.7
 11
-297.2500000000001
 21
1173.668659479166
 31
0.0
100
AcDbText
 73
     3
  0
TEXT
  5
1E6
330
422
100
AcDbEntity
  8
SPEC
 62
     7
100
AcDbText
 10
-297.2500000000001
 20
1042.165512777777
 30
0.0
 40
19.00314670138889
  1
6.5インチ(165mm)
 41
0.7
 11
-297.2500000000001
 21
1061.168659479166
 31
0.0
100
AcDbText
 73
     3
  0
TEXT
  5
1E7
330
422
100
AcDbEntity
  8
SPEC
 62
     7
100
AcDbText
 10
-297.2500000000001
 20
967.1655127777775
 30
0.0
 40
19.00314670138889
  1
黒または白(－WH）
 41
0.7
 11
-297.2500000000001
 21
986.1686594791663
 31
0.0
100
AcDbText
 73
     3
  0
TEXT
  5
1E8
330
422
100
AcDbEntity
  8
SPEC
 62
     7
100
AcDbText
 10
-297.2500000000001
 20
1117.165512777777
 30
0.0
 40
19.00314670138889
  1
60W、30W、15W
 41
0.7
 11
-297.2500000000001
 21
1136.168659479166
 31
0.0
100
AcDbText
 73
     3
  0
LINE
  5
1E9
330
422
100
AcDbEntity
  8
SPEC
  6
Continuous
 62
     7
100
AcDbLine
 10
756.25
 20
1371.786335
 30
0.0
 11
756.25
 21
771.7863350000001
 31
0.0
  0
TEXT
  5
1EA
330
422
100
AcDbEntity
  8
SPEC
 62
     7
100
AcDbText
 10
-297.2500000000001
 20
854.6655127777775
 30
0.0
 40
19.00314670138889
  1
5.2kg 
 41
0.7
 11
-297.2500000000001
 21
873.6686594791663
 31
0.0
100
AcDbText
 73
     3
  0
TEXT
  5
1EB
330
422
100
AcDbEntity
  8
SPEC
 62
     7
100
AcDbText
 10
-297.2500000000001
 20
1004.665512777777
 30
0.0
 40
19.00314670138889
  1
1インチ(25mm)
 41
0.7
 11
-297.2500000000001
 21
1023.668659479166
 31
0.0
100
AcDbText
 73
     3
  0
TEXT
  5
1EC
330
422
100
AcDbEntity
  8
SPEC
 62
     7
100
AcDbText
 10
-715.9999999999996
 20
817.1655127777775
 30
0.0
 40
19.00314670138889
  1
付属品
 41
0.7
 11
-715.9999999999996
 21
836.1686594791663
 31
0.0
100
AcDbText
 73
     3
  0
TEXT
  5
1ED
330
422
100
AcDbEntity
  8
SPEC
 62
     7
100
AcDbText
 10
-297.2500000000001
 20
817.1655127777773
 30
0.0
 40
19.00314670138889
  1
吊下げワイヤー・キット×2、2ピン・ユーロブロックコネクター×4、端子カバー×4、 
 41
0.7
 11
-297.2500000000001
 21
836.1686594791663
 31
0.0
100
AcDbText
 73
     3
  0
TEXT
  5
1EE
330
422
100
AcDbEntity
  8
SPEC
 62
     7
100
AcDbText
 10
-297.2500000000001
 20
779.6655127777774
 30
0.0
 40
19.00314670138889
  1
和文取扱説明書
 41
0.7
 11
-297.2500000000001
 21
798.6686594791663
 31
0.0
100
AcDbText
 73
     3
  0
LINE
  5
1EF
330
422
100
AcDbEntity
  8
SPEC
  6
Continuous
 62
     7
100
AcDbLine
 10
-725.0
 20
771.7863350000001
 30
0.0
 11
756.25
 21
771.7863350000001
 31
0.0
  0
TEXT
  5
1F0
330
422
100
AcDbEntity
  8
SPEC
 62
     7
100
AcDbText
 10
-375.3750000000001
 20
1117.165512777777
 30
0.0
 40
19.00314670138889
  1
100V
 41
0.7
 11
-375.3750000000001
 21
1136.168659479166
 31
0.0
100
AcDbText
 73
     3
  0
LINE
  5
1F1
330
422
100
AcDbEntity
  8
SPEC
  6
Continuous
 62
     7
100
AcDbLine
 10
-384.375
 20
1146.786335
 30
0.0
 11
-384.375
 21
996.7863349999996
 31
0.0
  0
TEXT
  5
1F2
330
422
100
AcDbEntity
  8
SPEC
 62
     7
100
AcDbText
 10
-375.3750000000001
 20
1079.665512777777
 30
0.0
 40
19.00314670138889
  1
70V
 41
0.7
 11
-375.3750000000001
 21
1098.668659479166
 31
0.0
100
AcDbText
 73
     3
  0
TEXT
  5
1F3
330
422
100
AcDbEntity
  8
SPEC
 62
     7
100
AcDbText
 10
-375.3750000000001
 20
1042.165512777777
 30
0.0
 40
19.00314670138889
  1
LF
 41
0.7
 11
-375.3750000000001
 21
1061.168659479166
 31
0.0
100
AcDbText
 73
     3
  0
TEXT
  5
1F4
330
422
100
AcDbEntity
  8
SPEC
 62
     7
100
AcDbText
 10
-375.3750000000001
 20
1004.665512777777
 30
0.0
 40
19.00314670138889
  1
HF
 41
0.7
 11
-375.3750000000001
 21
1023.668659479166
 31
0.0
100
AcDbText
 73
     3
  0
TEXT
  5
1F5
330
422
100
AcDbEntity
  8
SPEC
 62
     7
100
AcDbText
 10
-712.5
 20
738.2429537499997
 30
0.0
 40
19.00314670138889
  1
※100時間、ピンクノイズ:IEC/クレストファクター6dB
 41
0.7
 11
-712.5
 21
757.2461004513886
 31
0.0
100
AcDbText
 73
     3
  0
LINE
  5
1F6
330
422
100
AcDbEntity
  8
SPEC
  6
Continuous
 62
     7
100
AcDbLine
 10
-384.375
 20
1034.286335
 30
0.0
 11
756.25
 21
1034.286335
 31
0.0
  0
LINE
  5
1F7
330
422
100
AcDbEntity
  8
DIMNSIONS
  6
Continuous
 62
     7
100
AcDbLine
 10
249.0
 20
-304.0
 30
0.0
 11
249.0
 21
-470.0
 31
0.0
  0
LINE
  5
1F8
330
422
100
AcDbEntity
  8
DIMNSIONS
  6
Continuous
 62
     7
100
AcDbLine
 10
251.0
 20
-304.0
 30
0.0
 11
251.0
 21
-470.0
 31
0.0
  0
LINE
  5
1F9
330
422
100
AcDbEntity
  8
DIMNSIONS
  6
Continuous
 62
     7
100
AcDbLine
 10
251.0
 20
-450.0
 30
0.0
 11
249.0
 21
-450.0
 31
0.0
  0
LINE
  5
1FA
330
422
100
AcDbEntity
  8
DIMNSIONS
  6
Continuous
 62
     7
100
AcDbLine
 10
249.0
 20
-450.0
 30
0.0
 11
214.0
 21
-450.0
 31
0.0
  0
LINE
  5
1FB
330
422
100
AcDbEntity
  8
DIMNSIONS
  6
Continuous
 62
     7
100
AcDbLine
 10
249.0
 20
-450.0
 30
0.0
 11
223.9937744140625
 21
-456.7003979515024
 31
0.0
  0
LINE
  5
1FC
330
422
100
AcDbEntity
  8
DIMNSIONS
  6
Continuous
 62
     7
100
AcDbLine
 10
249.0
 20
-450.0
 30
0.0
 11
223.9937744140625
 21
-443.2996020484976
 31
0.0
  0
LINE
  5
1FD
330
422
100
AcDbEntity
  8
DIMNSIONS
  6
Continuous
 62
     7
100
AcDbLine
 10
251.0
 20
-450.0
 30
0.0
 11
292.6388888888889
 21
-450.0
 31
0.0
  0
LINE
  5
1FE
330
422
100
AcDbEntity
  8
DIMNSIONS
  6
Continuous
 62
     7
100
AcDbLine
 10
251.0
 20
-450.0
 30
0.0
 11
276.0062255859375
 21
-443.2996020484976
 31
0.0
  0
LINE
  5
1FF
330
422
100
AcDbEntity
  8
DIMNSIONS
  6
Continuous
 62
     7
100
AcDbLine
 10
251.0
 20
-450.0
 30
0.0
 11
276.0062255859375
 21
-456.7003979515024
 31
0.0
  0
TEXT
  5
200
330
422
100
AcDbEntity
  8
DIMNSIONS
 62
     7
100
AcDbText
 10
275.0
 20
-440.061111111111
 30
0.0
 40
27.14735243055556
  1
2
 41
0.7
 11
275.0
 21
-412.9137586805554
 31
0.0
100
AcDbText
 73
     3
  0
LINE
  5
201
330
422
100
AcDbEntity
  8
DIMNSIONS
  6
Continuous
 62
     7
100
AcDbLine
 10
-0.0000000000000142
 20
-216.0000000000001
 30
0.0
 11
70.0
 21
-216.0000000000001
 31
0.0
  0
LINE
  5
202
330
422
100
AcDbEntity
  8
DIMNSIONS
  6
Continuous
 62
     7
100
AcDbLine
 10
-0.0000000000000142
 20
-284.0000000000001
 30
0.0
 11
70.0
 21
-284.0000000000001
 31
0.0
  0
LINE
  5
203
330
422
100
AcDbEntity
  8
DIMNSIONS
  6
Continuous
 62
     7
100
AcDbLine
 10
50.0
 20
-216.0000000000001
 30
0.0
 11
50.0
 21
-284.0000000000001
 31
0.0
  0
LINE
  5
204
330
422
100
AcDbEntity
  8
DIMNSIONS
  6
Continuous
 62
     7
100
AcDbLine
 10
50.0
 20
-216.0000000000001
 30
0.0
 11
56.70039795150243
 21
-241.0062255859376
 31
0.0
  0
LINE
  5
205
330
422
100
AcDbEntity
  8
DIMNSIONS
  6
Continuous
 62
     7
100
AcDbLine
 10
50.0
 20
-216.0000000000001
 30
0.0
 11
43.29960204849757
 21
-241.0062255859376
 31
0.0
  0
LINE
  5
206
330
422
100
AcDbEntity
  8
DIMNSIONS
  6
Continuous
 62
     7
100
AcDbLine
 10
50.0
 20
-284.0000000000001
 30
0.0
 11
43.29960204849757
 21
-258.9937744140625
 31
0.0
  0
LINE
  5
207
330
422
100
AcDbEntity
  8
DIMNSIONS
  6
Continuous
 62
     7
100
AcDbLine
 10
50.0
 20
-284.0000000000001
 30
0.0
 11
56.70039795150243
 21
-258.9937744140625
 31
0.0
  0
TEXT
  5
208
330
422
100
AcDbEntity
  8
DIMNSIONS
 62
     7
100
AcDbText
 10
40.06111111111112
 20
-267.638888888889
 30
0.0
 40
27.14735243055556
  1
68
 50
90.0
 41
0.7
 11
12.91375868055556
 21
-267.638888888889
 31
0.0
100
AcDbText
 73
     3
  0
LINE
  5
209
330
422
100
AcDbEntity
  8
DIMNSIONS
  6
Continuous
 62
     7
100
AcDbLine
 10
-350.0
 20
-374.9999999996223
 30
0.0
 11
-350.0
 21
-482.5
 31
0.0
  0
LINE
  5
20A
330
422
100
AcDbEntity
  8
DIMNSIONS
  6
Continuous
 62
     7
100
AcDbLine
 10
-20.00000000000001
 20
-371.2090507285605
 30
0.0
 11
-20.00000000000001
 21
-482.5
 31
0.0
  0
LINE
  5
20B
330
422
100
AcDbEntity
  8
DIMNSIONS
  6
Continuous
 62
     7
100
AcDbLine
 10
-350.0
 20
-462.5
 30
0.0
 11
-20.00000000000001
 21
-462.5
 31
0.0
  0
LINE
  5
20C
330
422
100
AcDbEntity
  8
DIMNSIONS
  6
Continuous
 62
     7
100
AcDbLine
 10
-350.0
 20
-462.5
 30
0.0
 11
-324.9937744140625
 21
-455.7996020484976
 31
0.0
  0
LINE
  5
20D
330
422
100
AcDbEntity
  8
DIMNSIONS
  6
Continuous
 62
     7
100
AcDbLine
 10
-350.0
 20
-462.5
 30
0.0
 11
-324.9937744140625
 21
-469.2003979515024
 31
0.0
  0
LINE
  5
20E
330
422
100
AcDbEntity
  8
DIMNSIONS
  6
Continuous
 62
     7
100
AcDbLine
 10
-20.00000000000001
 20
-462.5
 30
0.0
 11
-45.00622558593752
 21
-469.2003979515024
 31
0.0
  0
LINE
  5
20F
330
422
100
AcDbEntity
  8
DIMNSIONS
  6
Continuous
 62
     7
100
AcDbLine
 10
-20.00000000000001
 20
-462.5
 30
0.0
 11
-45.00622558593752
 21
-455.7996020484976
 31
0.0
  0
TEXT
  5
210
330
422
100
AcDbEntity
  8
DIMNSIONS
 62
     7
100
AcDbText
 10
-211.4583333333333
 20
-452.561111111111
 30
0.0
 40
27.14735243055556
  1
330
 41
0.7
 11
-211.4583333333333
 21
-425.4137586805554
 31
0.0
100
AcDbText
 73
     3
  0
LINE
  5
211
330
422
100
AcDbEntity
  8
DIMNSIONS
  6
Continuous
 62
     7
100
AcDbLine
 10
-350.0
 20
-374.9999999996223
 30
0.0
 11
-350.0
 21
-532.5
 31
0.0
  0
LINE
  5
212
330
422
100
AcDbEntity
  8
DIMNSIONS
  6
Continuous
 62
     7
100
AcDbLine
 10
-0.0000000000001847
 20
-281.2039420252982
 30
0.0
 11
-0.0000000000001847
 21
-532.5
 31
0.0
  0
LINE
  5
213
330
422
100
AcDbEntity
  8
DIMNSIONS
  6
Continuous
 62
     7
100
AcDbLine
 10
-350.0
 20
-512.5
 30
0.0
 11
-0.0000000000001847
 21
-512.5
 31
0.0
  0
LINE
  5
214
330
422
100
AcDbEntity
  8
DIMNSIONS
  6
Continuous
 62
     7
100
AcDbLine
 10
-350.0
 20
-512.5
 30
0.0
 11
-324.9937744140625
 21
-505.7996020484976
 31
0.0
  0
LINE
  5
215
330
422
100
AcDbEntity
  8
DIMNSIONS
  6
Continuous
 62
     7
100
AcDbLine
 10
-350.0
 20
-512.5
 30
0.0
 11
-324.9937744140625
 21
-519.2003979515024
 31
0.0
  0
LINE
  5
216
330
422
100
AcDbEntity
  8
DIMNSIONS
  6
Continuous
 62
     7
100
AcDbLine
 10
-0.0000000000001847
 20
-512.5
 30
0.0
 11
-25.00622558593768
 21
-519.2003979515024
 31
0.0
  0
LINE
  5
217
330
422
100
AcDbEntity
  8
DIMNSIONS
  6
Continuous
 62
     7
100
AcDbLine
 10
-0.0000000000001847
 20
-512.5
 30
0.0
 11
-25.00622558593768
 21
-505.7996020484976
 31
0.0
  0
TEXT
  5
218
330
422
100
AcDbEntity
  8
DIMNSIONS
 62
     7
100
AcDbText
 10
-201.4583333333334
 20
-502.561111111111
 30
0.0
 40
27.14735243055556
  1
350
 41
0.7
 11
-201.4583333333334
 21
-475.4137586805554
 31
0.0
100
AcDbText
 73
     3
  0
LINE
  5
219
330
422
100
AcDbEntity
  8
DIMNSIONS
  6
Continuous
 62
     7
100
AcDbLine
 10
-10.50307929358935
 20
-244.3420579985027
 30
0.0
 11
62.5
 21
-37.50000000000002
 31
0.0
  0
LINE
  5
21A
330
422
100
AcDbEntity
  8
DIMNSIONS
  6
Continuous
 62
     7
100
AcDbLine
 10
-10.50307929358935
 20
-244.3420579985027
 30
0.0
 11
-8.246760946008862
 21
-218.5522212739776
 31
0.0
  0
LINE
  5
21B
330
422
100
AcDbEntity
  8
DIMNSIONS
  6
Continuous
 62
     7
100
AcDbLine
 10
-10.50307929358935
 20
-244.3420579985027
 30
0.0
 11
4.345868076702842
 21
-223.1355634094013
 31
0.0
  0
LINE
  5
21C
330
422
100
AcDbEntity
  8
DIMNSIONS
  6
Continuous
 62
     7
100
AcDbLine
 10
62.5
 20
-37.50000000000002
 30
0.0
 11
82.5
 21
-37.50000000000002
 31
0.0
  0
TEXT
  5
21D
330
422
100
AcDbEntity
  8
DIMNSIONS
 62
     7
100
AcDbText
 10
82.5
 20
-50.20000000000003
 30
0.0
 40
27.14735243055556
  1
φ12吊下げ
 41
0.7
 11
82.5
 21
-23.05264756944447
 31
0.0
100
AcDbText
 73
     3
  0
LINE
  5
21E
330
422
100
AcDbEntity
  8
DIMNSIONS
  6
Continuous
 62
     7
100
AcDbLine
 10
-585.7301360611252
 20
-401.8530782596745
 30
0.0
 11
-600.0
 21
-462.5
 31
0.0
  0
LINE
  5
21F
330
422
100
AcDbEntity
  8
DIMNSIONS
  6
Continuous
 62
     7
100
AcDbLine
 10
-585.7301360611252
 20
-401.8530782596745
 30
0.0
 11
-584.82664568575
 21
-427.7256574875925
 31
0.0
  0
LINE
  5
220
330
422
100
AcDbEntity
  8
DIMNSIONS
  6
Continuous
 62
     7
100
AcDbLine
 10
-585.7301360611252
 20
-401.8530782596745
 30
0.0
 11
-597.8839800579346
 21
-424.7111343201646
 31
0.0
  0
LINE
  5
221
330
422
100
AcDbEntity
  8
DIMNSIONS
  6
Continuous
 62
     7
100
AcDbLine
 10
-600.0
 20
-462.5
 30
0.0
 11
-620.0
 21
-462.5
 31
0.0
  0
TEXT
  5
222
330
422
100
AcDbEntity
  8
DIMNSIONS
 62
     7
100
AcDbText
 10
-708.1944444444444
 20
-475.1999999999998
 30
0.0
 40
27.14735243055556
  1
φ312
 41
0.7
 11
-708.1944444444444
 21
-448.0526475694443
 31
0.0
100
AcDbText
 73
     3
  0
TEXT
  5
223
330
422
100
AcDbEntity
  8
DIMNSIONS
 62
     7
100
AcDbText
 10
-254.3055555555556
 20
-85.47777777739991
 30
0.0
 40
27.14735243055556
  1
取付穴(2ヵ所)
 41
0.7
 11
-254.3055555555556
 21
-58.33042534684435
 31
0.0
100
AcDbText
 73
     3
  0
TEXT
  5
224
330
422
100
AcDbEntity
  8
DIMNSIONS
 62
     7
100
AcDbText
 10
-99.99999999999978
 20
-1005.518765
 30
0.0
 40
24.4326171875
  1
(単位：mm)
 41
0.7
 11
-99.99999999999978
 21
-981.0861478125
 31
0.0
100
AcDbText
 73
     3
  0
LINE
  5
225
330
422
100
AcDbEntity
  8
DIMNSIONS
  6
Continuous
 62
     7
100
AcDbLine
 10
-13.46473051204047
 20
-229.7859759618003
 30
0.0
 11
12.5
 21
-37.49999999962213
 31
0.0
  0
LINE
  5
226
330
422
100
AcDbEntity
  8
DIMNSIONS
  6
Continuous
 62
     7
100
AcDbLine
 10
-13.46473051204047
 20
-229.7859759618003
 30
0.0
 11
-16.61972669317291
 21
-204.0905940837208
 31
0.0
  0
LINE
  5
227
330
422
100
AcDbEntity
  8
DIMNSIONS
  6
Continuous
 62
     7
100
AcDbLine
 10
-13.46473051204047
 20
-229.7859759618003
 30
0.0
 11
-3.349346414704342
 21
-205.9556244048749
 31
0.0
  0
LINE
  5
228
330
422
100
AcDbEntity
  8
DIMNSIONS
  6
Continuous
 62
     7
100
AcDbLine
 10
12.5
 20
-37.49999999962213
 30
0.0
 11
-7.5
 21
-37.49999999962213
 31
0.0
  0
TEXT
  5
229
330
422
100
AcDbEntity
  8
DIMNSIONS
 62
     7
100
AcDbText
 10
-395.5555555555555
 20
-50.19999999962212
 30
0.0
 40
27.14735243055556
  1
φ7.5落下防止ワイヤー 
 41
0.7
 11
-395.5555555555555
 21
-23.05264756906657
 31
0.0
100
AcDbText
 73
     3
  0
TEXT
  5
22A
330
422
100
AcDbEntity
  8
DIMNSIONS
 62
     7
100
AcDbText
 10
82.49999999999998
 20
-85.47777777777781
 30
0.0
 40
27.14735243055556
  1
ワイヤー取付穴
 41
0.7
 11
82.49999999999998
 21
-58.33042534722225
 31
0.0
100
AcDbText
 73
     3
  0
LINE
  5
22B
330
422
100
AcDbEntity
  8
DATA
  6
Continuous
 62
     7
100
AcDbLine
 10
790.6406249999999
 20
32.66434082222172
 30
0.0
 11
709.359375
 21
32.66434082222172
 31
0.0
  0
LINE
  5
22C
330
422
100
AcDbEntity
  8
DATA
  6
Continuous
 62
     7
100
AcDbLine
 10
790.6406249999999
 20
-28.29659667777861
 30
0.0
 11
790.6406249999999
 21
32.66434082222172
 31
0.0
  0
LINE
  5
22D
330
422
100
AcDbEntity
  8
DATA
  6
Continuous
 62
     7
100
AcDbLine
 10
709.359375
 20
-28.29659667777861
 30
0.0
 11
709.359375
 21
32.66434082222172
 31
0.0
  0
LINE
  5
22E
330
422
100
AcDbEntity
  8
DATA
  6
Continuous
 62
     7
100
AcDbLine
 10
790.6406249999999
 20
-28.29659667777861
 30
0.0
 11
709.359375
 21
-28.29659667777861
 31
0.0
  0
LWPOLYLINE
  5
22F
330
422
100
AcDbEntity
  8
DATA
  6
Continuous
 62
     7
100
AcDbPolyline
 90
        4
 70
     1
 43
0.0
 10
729.6796875
 20
5.570590822221419
 10
736.4531249999999
 20
5.570590822221419
 10
736.4531249999999
 20
-1.20284667777858
 10
729.6796875
 20
-1.20284667777858
  0
LWPOLYLINE
  5
236
330
422
100
AcDbEntity
  8
DATA
  6
Continuous
 62
     7
100
AcDbPolyline
 90
        4
 70
     1
 43
0.0
 10
763.546875
 20
5.570590822221419
 10
770.3203124999999
 20
5.570590822221419
 10
770.3203124999999
 20
-1.20284667777858
 10
763.546875
 20
-1.20284667777858
  0
LINE
  5
23D
330
422
100
AcDbEntity
  8
DATA
  6
Continuous
 62
     7
100
AcDbLine
 10
762.2477476425197
 20
58.40340332222172
 30
0.0
 11
775.7946226425197
 21
58.40340332222172
 31
0.0
  0
LINE
  5
23E
330
422
100
AcDbEntity
  8
DATA
  6
Continuous
 62
     7
100
AcDbLine
 10
730.9788148574804
 20
51.62996582222172
 30
0.0
 11
730.9788148574804
 21
65.17684082222172
 31
0.0
  0
LINE
  5
23F
330
422
100
AcDbEntity
  8
DATA
  6
Continuous
 62
     7
100
AcDbLine
 10
724.2053773574804
 20
58.40340332222172
 30
0.0
 11
737.7522523574803
 21
58.40340332222172
 31
0.0
  0
LINE
  5
240
330
422
100
AcDbEntity
  8
DATA
  6
Continuous
 62
     7
100
AcDbLine
 10
713.4234375000001
 20
-18.13644042777861
 30
0.0
 11
713.4234375000001
 21
22.50418457222172
 31
0.0
  0
LINE
  5
241
330
422
100
AcDbEntity
  8
DATA
  6
Continuous
 62
     7
100
AcDbLine
 10
786.5765625000001
 20
-18.13644042777861
 30
0.0
 11
786.5765625000001
 21
22.50418457222172
 31
0.0
  0
LINE
  5
242
330
422
100
AcDbEntity
  8
DATA
  6
Continuous
 62
     7
100
AcDbLine
 10
786.5765625000001
 20
22.50418457222172
 30
0.0
 11
713.4234375000001
 21
22.50418457222172
 31
0.0
  0
LINE
  5
243
330
422
100
AcDbEntity
  8
DATA
  6
Continuous
 62
     7
100
AcDbLine
 10
786.5765625000001
 20
-18.13644042777861
 30
0.0
 11
783.1898437499975
 21
-18.13644042777861
 31
0.0
  0
LINE
  5
244
330
422
100
AcDbEntity
  8
DATA
  6
Continuous
 62
     7
100
AcDbLine
 10
753.3867187500024
 20
-18.13644042777861
 30
0.0
 11
746.6132812499976
 21
-18.13644042777861
 31
0.0
  0
LINE
  5
245
330
422
100
AcDbEntity
  8
DATA
  6
Continuous
 62
     7
100
AcDbLine
 10
716.8101562500025
 20
-18.13644042777861
 30
0.0
 11
713.4234375000001
 21
-18.13644042777861
 31
0.0
  0
LINE
  5
246
330
422
100
AcDbEntity
  8
DATA
  6
Continuous
 62
     7
100
AcDbLine
 10
713.4234375000001
 20
-18.13644042777861
 30
0.0
 11
716.8101562500025
 21
-18.13644042777861
 31
0.0
  0
LINE
  5
247
330
422
100
AcDbEntity
  8
DATA
  6
Continuous
 62
     7
100
AcDbLine
 10
746.6132812499976
 20
-18.13644042777861
 30
0.0
 11
750.0
 21
-18.13644042777861
 31
0.0
  0
ARC
  5
248
330
422
100
AcDbEntity
  8
DATA
  6
Continuous
 62
     7
100
AcDbCircle
 10
731.71171875
 20
-7.294102258135808
 30
0.0
 40
18.42858816964279
100
AcDbArc
 50
216.0395385635542
 51
323.9604614364457
  0
ARC
  5
249
330
422
100
AcDbEntity
  8
DATA
  6
Continuous
 62
     7
100
AcDbCircle
 10
768.2882812500003
 20
-7.294102258135808
 30
0.0
 40
18.42858816964296
100
AcDbArc
 50
216.0395385635538
 51
323.9604614364454
  0
LINE
  5
24A
330
422
100
AcDbEntity
  8
DATA
  6
Continuous
 62
     7
100
AcDbLine
 10
790.6406249999999
 20
-89.03906249999979
 30
0.0
 11
709.359375
 21
-89.03906249999979
 31
0.0
  0
LINE
  5
24B
330
422
100
AcDbEntity
  8
DATA
  6
Continuous
 62
     7
100
AcDbLine
 10
790.6406249999999
 20
-150.0
 30
0.0
 11
790.6406249999999
 21
-89.03906249999979
 31
0.0
  0
LINE
  5
24C
330
422
100
AcDbEntity
  8
DATA
  6
Continuous
 62
     7
100
AcDbLine
 10
709.359375
 20
-150.0
 30
0.0
 11
709.359375
 21
-89.03906249999979
 31
0.0
  0
LINE
  5
24D
330
422
100
AcDbEntity
  8
DATA
  6
Continuous
 62
     7
100
AcDbLine
 10
790.6406249999999
 20
-150.0
 30
0.0
 11
709.359375
 21
-150.0
 31
0.0
  0
LWPOLYLINE
  5
24E
330
422
100
AcDbEntity
  8
DATA
  6
Continuous
 62
     7
100
AcDbPolyline
 90
        4
 70
     1
 43
0.0
 10
729.6796875
 20
-116.1328125000001
 10
736.4531249999999
 20
-116.1328125000001
 10
736.4531249999999
 20
-122.9062500000001
 10
729.6796875
 20
-122.9062500000001
  0
LWPOLYLINE
  5
255
330
422
100
AcDbEntity
  8
DATA
  6
Continuous
 62
     7
100
AcDbPolyline
 90
        4
 70
     1
 43
0.0
 10
763.546875
 20
-116.1328125000001
 10
770.3203124999999
 20
-116.1328125000001
 10
770.3203124999999
 20
-122.9062500000001
 10
763.546875
 20
-122.9062500000001
  0
LINE
  5
25C
330
422
100
AcDbEntity
  8
DATA
  6
Continuous
 62
     7
100
AcDbLine
 10
762.2477476425197
 20
-63.29999999999976
 30
0.0
 11
775.7946226425197
 21
-63.29999999999976
 31
0.0
  0
LINE
  5
25D
330
422
100
AcDbEntity
  8
DATA
  6
Continuous
 62
     7
100
AcDbLine
 10
730.9788148574804
 20
-70.07343749999975
 30
0.0
 11
730.9788148574804
 21
-56.52656249999976
 31
0.0
  0
LINE
  5
25E
330
422
100
AcDbEntity
  8
DATA
  6
Continuous
 62
     7
100
AcDbLine
 10
724.2053773574804
 20
-63.29999999999976
 30
0.0
 11
737.7522523574803
 21
-63.29999999999976
 31
0.0
  0
LINE
  5
25F
330
422
100
AcDbEntity
  8
DATA
  6
Continuous
 62
     7
100
AcDbLine
 10
713.4234375000001
 20
-139.83984375
 30
0.0
 11
713.4234375000001
 21
-99.19921874999978
 31
0.0
  0
LINE
  5
260
330
422
100
AcDbEntity
  8
DATA
  6
Continuous
 62
     7
100
AcDbLine
 10
786.5765625000001
 20
-139.83984375
 30
0.0
 11
786.5765625000001
 21
-99.19921874999978
 31
0.0
  0
LINE
  5
261
330
422
100
AcDbEntity
  8
DATA
  6
Continuous
 62
     7
100
AcDbLine
 10
786.5765625000001
 20
-99.19921874999978
 30
0.0
 11
713.4234375000001
 21
-99.19921874999978
 31
0.0
  0
LINE
  5
262
330
422
100
AcDbEntity
  8
DATA
  6
Continuous
 62
     7
100
AcDbLine
 10
786.5765625000001
 20
-139.83984375
 30
0.0
 11
783.1898437499975
 21
-139.83984375
 31
0.0
  0
LINE
  5
263
330
422
100
AcDbEntity
  8
DATA
  6
Continuous
 62
     7
100
AcDbLine
 10
753.3867187500024
 20
-139.83984375
 30
0.0
 11
746.6132812499976
 21
-139.83984375
 31
0.0
  0
LINE
  5
264
330
422
100
AcDbEntity
  8
DATA
  6
Continuous
 62
     7
100
AcDbLine
 10
716.8101562500025
 20
-139.83984375
 30
0.0
 11
713.4234375000001
 21
-139.83984375
 31
0.0
  0
LINE
  5
265
330
422
100
AcDbEntity
  8
DATA
  6
Continuous
 62
     7
100
AcDbLine
 10
713.4234375000001
 20
-139.83984375
 30
0.0
 11
716.8101562500025
 21
-139.83984375
 31
0.0
  0
LINE
  5
266
330
422
100
AcDbEntity
  8
DATA
  6
Continuous
 62
     7
100
AcDbLine
 10
746.6132812499976
 20
-139.83984375
 30
0.0
 11
750.0
 21
-139.83984375
 31
0.0
  0
ARC
  5
267
330
422
100
AcDbEntity
  8
DATA
  6
Continuous
 62
     7
100
AcDbCircle
 10
731.71171875
 20
-128.9975055803572
 30
0.0
 40
18.42858816964279
100
AcDbArc
 50
216.0395385635542
 51
323.9604614364456
  0
ARC
  5
268
330
422
100
AcDbEntity
  8
DATA
  6
Continuous
 62
     7
100
AcDbCircle
 10
768.2882812500003
 20
-128.9975055803572
 30
0.0
 40
18.42858816964296
100
AcDbArc
 50
216.0395385635538
 51
323.9604614364456
  0
CIRCLE
  5
269
330
422
100
AcDbEntity
  8
DATA
  6
Continuous
 62
     7
100
AcDbCircle
 10
750.0
 20
-449.9999999999988
 30
0.0
 40
94.51431000000003
  0
TEXT
  5
26A
330
422
100
AcDbEntity
  8
DATA
 62
     7
100
AcDbText
 10
763.4675755053688
 20
-504.8778088087865
 30
0.0
 40
22.45086622888184
  1
30
 50
284.0
 41
0.7
 11
785.2515550584469
 21
-499.4464526928409
 31
0.0
100
AcDbText
 73
     3
  0
TEXT
  5
26B
330
422
100
AcDbEntity
  8
DATA
 62
     7
100
AcDbText
 10
763.4201158693132
 20
-364.1687406486015
 30
0.0
 40
22.45086622888184
  1
30
 50
265.0
 41
0.7
 11
785.7855497740923
 21
-366.125462570108
 31
0.0
100
AcDbText
 73
     3
  0
TEXT
  5
26C
330
422
100
AcDbEntity
  8
DATA
 62
     7
100
AcDbText
 10
801.367775322897
 20
-461.4025141716403
 30
0.0
 40
22.45086622888184
  1
8Ω
 41
0.7
 11
801.367775322897
 21
-438.9516479427585
 31
0.0
100
AcDbText
 73
     3
  0
TEXT
  5
26D
330
422
100
AcDbEntity
  8
DATA
 62
     7
100
AcDbText
 10
698.8295324939728
 20
-438.8226295135803
 30
0.0
 40
22.45086622888184
  1
8Ω
 50
180.0
 41
0.7
 11
698.8295324939728
 21
-461.2734957424621
 31
0.0
100
AcDbText
 73
     3
  0
TEXT
  5
26E
330
422
100
AcDbEntity
  8
DATA
 62
     7
100
AcDbText
 10
809.1354017425967
 20
-385.1690045389549
 30
0.0
 40
22.45086622888184
  1
15
 50
240.0
 41
0.7
 11
828.5784222337746
 21
-396.3944376533959
 31
0.0
100
AcDbText
 73
     3
  0
CIRCLE
  5
26F
330
422
100
AcDbEntity
  8
DATA
  6
Continuous
 62
     7
100
AcDbCircle
 10
684.375
 20
-403.9909841944008
 30
0.0
 40
4.913234163220251
  0
TEXT
  5
270
330
422
100
AcDbEntity
  8
DATA
 62
     7
100
AcDbText
 10
714.4330510460641
 20
-475.8141872742415
 30
0.0
 40
22.45086622888184
  1
7.5
 50
210.0
 41
0.7
 11
725.658484160505
 21
-495.2572077654194
 31
0.0
100
AcDbText
 73
     3
  0
TEXT
  5
271
330
422
100
AcDbEntity
  8
DATA
 62
     7
100
AcDbText
 10
725.2523732001051
 20
-505.2640400638355
 30
0.0
 40
22.45086622888184
  1
15
 50
240.0
 41
0.7
 11
744.6953936912828
 21
-516.4894731782765
 31
0.0
100
AcDbText
 73
     3
  0
TEXT
  5
272
330
422
100
AcDbEntity
  8
DATA
 62
     7
100
AcDbText
 10
792.7199263939119
 20
-486.609407237705
 30
0.0
 40
22.45086622888184
  1
60
 50
300.0
 41
0.7
 11
812.1629468850896
 21
-475.383974123264
 31
0.0
100
AcDbText
 73
     3
  0
TEXT
  5
273
330
422
100
AcDbEntity
  8
DATA
 62
     7
100
AcDbText
 10
707.0741015662654
 20
-373.2505496222275
 30
0.0
 40
22.45086622888184
  1
60
 50
290.0000000000001
 41
0.7
 11
728.1710148917972
 21
-365.5719011368399
 31
0.0
100
AcDbText
 73
     3
  0
LWPOLYLINE
  5
274
330
422
100
AcDbEntity
  8
DATA
  6
Continuous
 62
     7
100
AcDbPolyline
 90
        4
 70
     1
 43
0.0
 10
710.358471901813
 20
-467.7899001905336
 10
707.7325138706214
 20
-452.8973521491569
 10
789.6415280981884
 20
-438.4545829776039
 10
792.2674861293804
 20
-453.3471310189804
  0
LINE
  5
27B
330
422
100
AcDbEntity
  8
DATA
  6
Continuous
 62
     7
100
AcDbLine
 10
628.5491116500001
 20
-459.451431
 30
0.0
 11
647.45197365
 21
-449.9999999999997
 31
0.0
  0
LINE
  5
27C
330
422
100
AcDbEntity
  8
DATA
  6
Continuous
 62
     7
100
AcDbLine
 10
647.45197365
 20
-449.9999999999997
 30
0.0
 11
628.5491116500001
 21
-440.5485689999997
 31
0.0
  0
LINE
  5
27D
330
422
100
AcDbEntity
  8
DATA
  6
Continuous
 62
     7
100
AcDbLine
 10
628.5491116500001
 20
-459.451431
 30
0.0
 11
628.5491116500001
 21
-440.5485689999997
 31
0.0
  0
LINE
  5
27E
330
422
100
AcDbEntity
  8
DATA
  6
Continuous
 62
     7
100
AcDbLine
 10
871.45088835
 20
-459.451431
 30
0.0
 11
852.5480263500003
 21
-449.9999999999997
 31
0.0
  0
LINE
  5
27F
330
422
100
AcDbEntity
  8
DATA
  6
Continuous
 62
     7
100
AcDbLine
 10
852.5480263500003
 20
-449.9999999999997
 30
0.0
 11
871.45088835
 21
-440.5485689999997
 31
0.0
  0
LINE
  5
280
330
422
100
AcDbEntity
  8
DATA
  6
Continuous
 62
     7
100
AcDbLine
 10
871.45088835
 20
-459.451431
 30
0.0
 11
871.45088835
 21
-440.5485689999997
 31
0.0
  0
TEXT
  5
281
330
422
100
AcDbEntity
  8
DATA
 62
     7
100
AcDbText
 10
737.5925552707609
 20
-490.8933045464731
 30
0.0
 40
22.45086622888184
  1
70V
 50
9.999999999999996
 41
0.7
 11
733.6940032630716
 21
-468.7835174224303
 31
0.0
100
AcDbText
 73
     3
  0
TEXT
  5
282
330
422
100
AcDbEntity
  8
DATA
 62
     7
100
AcDbText
 10
771.8302111280591
 20
-414.9664678228168
 30
0.0
 40
22.45086622888184
  1
100V
 50
190.0
 41
0.7
 11
775.7287631357484
 21
-437.0762549468596
 31
0.0
100
AcDbText
 73
     3
  0
TEXT
  5
283
330
422
100
AcDbEntity
  8
DATA
 62
     7
100
AcDbText
 10
696.1577510127315
 20
-207.3236762152778
 30
0.0
 40
27.14735243055556
  1
端子拡大図
 41
0.7
 72
     1
 11
750.0
 21
-193.75
 31
0.0
100
AcDbText
 73
     2
  0
TEXT
  5
284
330
422
100
AcDbEntity
  8
DATA
 62
     7
100
AcDbText
 10
600.1761260635064
 20
-1016.030358201842
 30
0.0
 40
24.4326171875
  1
Control 67P/T 
 41
0.7
 11
600.1761260635064
 21
-991.5977410143423
 31
0.0
100
AcDbText
 73
     3
  0
LINE
  5
285
330
422
100
AcDbEntity
  8
DATA
  6
Continuous
 62
     7
100
AcDbLine
 10
-296.0
 20
-93.99999999962215
 30
0.0
 11
-296.0
 21
-406.0000000003778
 31
0.0
  0
LINE
  5
286
330
422
100
AcDbEntity
  8
DATA
  6
Continuous
 62
     7
100
AcDbLine
 10
-350.0
 20
-144.9999999996221
 30
0.0
 11
-350.0
 21
-354.9999999996223
 31
0.0
  0
LINE
  5
287
330
422
100
AcDbEntity
  8
DATA
  6
Continuous
 62
     7
100
AcDbLine
 10
-340.0
 20
-104.9999999996219
 30
0.0
 11
-340.0
 21
-395.000000000378
 31
0.0
  0
CIRCLE
  5
288
330
422
100
AcDbEntity
  8
DATA
  6
Continuous
 62
     7
100
AcDbCircle
 10
250.0
 20
-250.0
 30
0.0
 40
156.0
  0
LINE
  5
289
330
422
100
AcDbEntity
  8
DATA
  6
Continuous
 62
     7
100
AcDbLine
 10
249.0
 20
-216.0
 30
0.0
 11
251.0
 21
-216.0
 31
0.0
  0
LINE
  5
28A
330
422
100
AcDbEntity
  8
DATA
  6
Continuous
 62
     7
100
AcDbLine
 10
249.0
 20
-284.0
 30
0.0
 11
249.0
 21
-216.0
 31
0.0
  0
LINE
  5
28B
330
422
100
AcDbEntity
  8
DATA
  6
Continuous
 62
     7
100
AcDbLine
 10
251.0
 20
-284.0
 30
0.0
 11
249.0
 21
-284.0
 31
0.0
  0
LINE
  5
28C
330
422
100
AcDbEntity
  8
DATA
  6
Continuous
 62
     7
100
AcDbLine
 10
251.0
 20
-216.0
 30
0.0
 11
251.0
 21
-284.0
 31
0.0
  0
LINE
  5
28D
330
422
100
AcDbEntity
  8
DATA
  6
Continuous
 62
     7
100
AcDbLine
 10
240.9966009139896
 20
-288.0
 30
0.0
 11
192.821281894807
 21
-288.0
 31
0.0
  0
LINE
  5
28E
330
422
100
AcDbEntity
  8
DATA
  6
Continuous
 62
     7
100
AcDbLine
 10
192.821281894807
 20
-212.0
 30
0.0
 11
240.9966009139896
 21
-212.0
 31
0.0
  0
ARC
  5
28F
330
422
100
AcDbEntity
  8
DATA
  6
Continuous
 62
     7
100
AcDbCircle
 10
250.1363636363637
 20
-250.0
 30
0.0
 40
71.13636363636384
100
AcDbArc
 50
150.0681822303628
 51
209.9318177696372
  0
LINE
  5
290
330
422
100
AcDbEntity
  8
DATA
  6
Continuous
 62
     7
100
AcDbLine
 10
307.7176690685237
 20
-296.5
 30
0.0
 11
246.9966009139896
 21
-296.5
 31
0.0
  0
LINE
  5
291
330
422
100
AcDbEntity
  8
DATA
  6
Continuous
 62
     7
100
AcDbLine
 10
246.9966009139896
 20
-203.5
 30
0.0
 11
307.7176690685237
 21
-203.5
 31
0.0
  0
LINE
  5
292
330
422
100
AcDbEntity
  8
DATA
  6
Continuous
 62
     7
100
AcDbLine
 10
243.9966009139896
 20
-209.0
 30
0.0
 11
243.9966009139896
 21
-206.5
 31
0.0
  0
LINE
  5
293
330
422
100
AcDbEntity
  8
DATA
  6
Continuous
 62
     7
100
AcDbLine
 10
243.9966009139896
 20
-291.0
 30
0.0
 11
243.9966009139896
 21
-293.5
 31
0.0
  0
ARC
  5
294
330
422
100
AcDbEntity
  8
DATA
  6
Continuous
 62
     7
100
AcDbCircle
 10
207.8875000000003
 20
-250.0
 30
0.0
 40
113.1124999999998
100
AcDbArc
 50
337.4270509877267
 51
22.5729490122734
  0
ARC
  5
295
330
422
100
AcDbEntity
  8
DATA
  6
Continuous
 62
     7
100
AcDbCircle
 10
307.7176690685237
 20
-208.5
 30
0.0
 40
5.000000000000028
100
AcDbArc
 50
22.57294901227126
 51
90.0
  0
ARC
  5
296
330
422
100
AcDbEntity
  8
DATA
  6
Continuous
 62
     7
100
AcDbCircle
 10
307.7176690685237
 20
-291.5
 30
0.0
 40
5.0
100
AcDbArc
 50
270.0
 51
337.4270509877283
  0
ARC
  5
297
330
422
100
AcDbEntity
  8
DATA
  6
Continuous
 62
     7
100
AcDbCircle
 10
192.821281894807
 20
-217.0
 30
0.0
 40
5.0
100
AcDbArc
 50
90.0
 51
150.0681822303613
  0
ARC
  5
298
330
422
100
AcDbEntity
  8
DATA
  6
Continuous
 62
     7
100
AcDbCircle
 10
192.821281894807
 20
-283.0
 30
0.0
 40
5.000000000000096
100
AcDbArc
 50
209.9318177696386
 51
270.0
  0
ARC
  5
299
330
422
100
AcDbEntity
  8
DATA
  6
Continuous
 62
     7
100
AcDbCircle
 10
246.9966009139896
 20
-206.5
 30
0.0
 40
3.0
100
AcDbArc
 50
90.0
 51
180.0
  0
ARC
  5
29A
330
422
100
AcDbEntity
  8
DATA
  6
Continuous
 62
     7
100
AcDbCircle
 10
246.9966009139896
 20
-293.5
 30
0.0
 40
3.0
100
AcDbArc
 50
180.0
 51
270.0
  0
ARC
  5
29B
330
422
100
AcDbEntity
  8
DATA
  6
Continuous
 62
     7
100
AcDbCircle
 10
240.9966009139896
 20
-291.0
 30
0.0
 40
3.0
100
AcDbArc
 50
0.0
 51
90.0
  0
ARC
  5
29C
330
422
100
AcDbEntity
  8
DATA
  6
Continuous
 62
     7
100
AcDbCircle
 10
240.9966009139896
 20
-209.0
 30
0.0
 40
3.0
100
AcDbArc
 50
270.0
 51
0.0
  0
CIRCLE
  5
29D
330
422
100
AcDbEntity
  8
DATA
  6
Continuous
 62
     7
100
AcDbCircle
 10
264.9999999999999
 20
-213.0
 30
0.0
 40
3.5
  0
LWPOLYLINE
  5
29E
330
422
100
AcDbEntity
  8
DATA
  6
Continuous
 62
     7
100
AcDbPolyline
 90
        6
 70
     1
 43
0.0
 10
266.3000000000001
 20
-213.0
 10
265.6499999999999
 20
-211.8741669750803
 10
264.35
 20
-211.8741669750803
 10
263.7
 20
-213.0
 10
264.35
 20
-214.1258330249197
 10
265.6499999999999
 20
-214.1258330249197
  0
CIRCLE
  5
2A7
330
422
100
AcDbEntity
  8
DATA
  6
Continuous
 62
     7
100
AcDbCircle
 10
264.9999999999999
 20
-287.0
 30
0.0
 40
3.5
  0
LWPOLYLINE
  5
2A8
330
422
100
AcDbEntity
  8
DATA
  6
Continuous
 62
     7
100
AcDbPolyline
 90
        6
 70
     1
 43
0.0
 10
266.3000000000001
 20
-287.0
 10
265.6499999999999
 20
-285.8741669750802
 10
264.35
 20
-285.8741669750802
 10
263.7
 20
-287.0
 10
264.35
 20
-288.1258330249197
 10
265.6499999999999
 20
-288.1258330249197
  0
LINE
  5
2B1
330
422
100
AcDbEntity
  8
DATA
  6
Continuous
 62
     7
100
AcDbLine
 10
233.9664182034485
 20
-256.0
 30
0.0
 11
233.9664182034485
 21
-244.0
 31
0.0
  0
LINE
  5
2B2
330
422
100
AcDbEntity
  8
DATA
  6
Continuous
 62
     7
100
AcDbLine
 10
224.9664182034484
 20
-256.0
 30
0.0
 11
233.9664182034485
 21
-256.0
 31
0.0
  0
LINE
  5
2B3
330
422
100
AcDbEntity
  8
DATA
  6
Continuous
 62
     7
100
AcDbLine
 10
224.9664182034484
 20
-244.0
 30
0.0
 11
233.9664182034485
 21
-244.0
 31
0.0
  0
LINE
  5
2B4
330
422
100
AcDbEntity
  8
DATA
  6
Continuous
 62
     7
100
AcDbLine
 10
224.9664182034484
 20
-256.0
 30
0.0
 11
224.9664182034484
 21
-244.0
 31
0.0
  0
LWPOLYLINE
  5
2B5
330
422
100
AcDbEntity
  8
DATA
  6
Continuous
 62
     7
100
AcDbPolyline
 90
        4
 70
     1
 43
0.0
 10
228.9664182034484
 20
-247.0
 10
229.9664182034485
 20
-247.0
 10
229.9664182034485
 20
-248.0
 10
228.9664182034484
 20
-248.0
  0
LWPOLYLINE
  5
2BC
330
422
100
AcDbEntity
  8
DATA
  6
Continuous
 62
     7
100
AcDbPolyline
 90
        4
 70
     1
 43
0.0
 10
228.9664182034484
 20
-252.0
 10
229.9664182034485
 20
-252.0
 10
229.9664182034485
 20
-253.0
 10
228.9664182034484
 20
-253.0
  0
LINE
  5
2C3
330
422
100
AcDbEntity
  8
DATA
  6
Continuous
 62
     7
100
AcDbLine
 10
237.7664182034485
 20
-251.8082026507986
 30
0.0
 11
237.7664182034485
 21
-253.8082026507986
 31
0.0
  0
LINE
  5
2C4
330
422
100
AcDbEntity
  8
DATA
  6
Continuous
 62
     7
100
AcDbLine
 10
236.7664182034485
 20
-247.1917973492013
 30
0.0
 11
238.7664182034485
 21
-247.1917973492013
 31
0.0
  0
LINE
  5
2C5
330
422
100
AcDbEntity
  8
DATA
  6
Continuous
 62
     7
100
AcDbLine
 10
237.7664182034485
 20
-246.1917973492013
 30
0.0
 11
237.7664182034485
 21
-248.1917973492013
 31
0.0
  0
LINE
  5
2C6
330
422
100
AcDbEntity
  8
DATA
  6
Continuous
 62
     7
100
AcDbLine
 10
226.4664182034485
 20
-244.5999999999999
 30
0.0
 11
232.4664182034485
 21
-244.5999999999999
 31
0.0
  0
LINE
  5
2C7
330
422
100
AcDbEntity
  8
DATA
  6
Continuous
 62
     7
100
AcDbLine
 10
226.4664182034485
 20
-255.4000000000001
 30
0.0
 11
232.4664182034485
 21
-255.4000000000001
 31
0.0
  0
LINE
  5
2C8
330
422
100
AcDbEntity
  8
DATA
  6
Continuous
 62
     7
100
AcDbLine
 10
232.4664182034485
 20
-255.4000000000001
 30
0.0
 11
232.4664182034485
 21
-244.5999999999999
 31
0.0
  0
LINE
  5
2C9
330
422
100
AcDbEntity
  8
DATA
  6
Continuous
 62
     7
100
AcDbLine
 10
226.4664182034485
 20
-255.4000000000001
 30
0.0
 11
226.4664182034485
 21
-254.8999999999996
 31
0.0
  0
LINE
  5
2CA
330
422
100
AcDbEntity
  8
DATA
  6
Continuous
 62
     7
100
AcDbLine
 10
226.4664182034485
 20
-250.5000000000004
 30
0.0
 11
226.4664182034485
 21
-249.4999999999996
 31
0.0
  0
LINE
  5
2CB
330
422
100
AcDbEntity
  8
DATA
  6
Continuous
 62
     7
100
AcDbLine
 10
226.4664182034485
 20
-245.1000000000004
 30
0.0
 11
226.4664182034485
 21
-244.5999999999999
 31
0.0
  0
LINE
  5
2CC
330
422
100
AcDbEntity
  8
DATA
  6
Continuous
 62
     7
100
AcDbLine
 10
226.4664182034485
 20
-244.5999999999999
 30
0.0
 11
226.4664182034485
 21
-245.1000000000004
 31
0.0
  0
LINE
  5
2CD
330
422
100
AcDbEntity
  8
DATA
  6
Continuous
 62
     7
100
AcDbLine
 10
226.4664182034485
 20
-249.4999999999996
 30
0.0
 11
226.4664182034485
 21
-250.0
 31
0.0
  0
ARC
  5
2CE
330
422
100
AcDbEntity
  8
DATA
  6
Continuous
 62
     7
100
AcDbCircle
 10
228.0671324891627
 20
-247.3000000000002
 30
0.0
 40
2.7207142857145
100
AcDbArc
 50
126.0395385635507
 51
233.9604614364436
  0
ARC
  5
2CF
330
422
100
AcDbEntity
  8
DATA
  6
Continuous
 62
     7
100
AcDbCircle
 10
228.0671324891627
 20
-252.6999999999998
 30
0.0
 40
2.720714285714132
100
AcDbArc
 50
126.0395385635564
 51
233.9604614364493
  0
LINE
  5
2D0
330
422
100
AcDbEntity
  8
DATA
  6
Continuous
 62
     7
100
AcDbLine
 10
197.9664182034485
 20
-256.0
 30
0.0
 11
197.9664182034485
 21
-244.0
 31
0.0
  0
LINE
  5
2D1
330
422
100
AcDbEntity
  8
DATA
  6
Continuous
 62
     7
100
AcDbLine
 10
188.9664182034484
 20
-256.0
 30
0.0
 11
197.9664182034485
 21
-256.0
 31
0.0
  0
LINE
  5
2D2
330
422
100
AcDbEntity
  8
DATA
  6
Continuous
 62
     7
100
AcDbLine
 10
188.9664182034484
 20
-244.0
 30
0.0
 11
197.9664182034485
 21
-244.0
 31
0.0
  0
LINE
  5
2D3
330
422
100
AcDbEntity
  8
DATA
  6
Continuous
 62
     7
100
AcDbLine
 10
188.9664182034484
 20
-256.0
 30
0.0
 11
188.9664182034484
 21
-244.0
 31
0.0
  0
LWPOLYLINE
  5
2D4
330
422
100
AcDbEntity
  8
DATA
  6
Continuous
 62
     7
100
AcDbPolyline
 90
        4
 70
     1
 43
0.0
 10
192.9664182034484
 20
-247.0
 10
193.9664182034484
 20
-247.0
 10
193.9664182034484
 20
-248.0
 10
192.9664182034484
 20
-248.0
  0
LWPOLYLINE
  5
2DB
330
422
100
AcDbEntity
  8
DATA
  6
Continuous
 62
     7
100
AcDbPolyline
 90
        4
 70
     1
 43
0.0
 10
192.9664182034484
 20
-252.0
 10
193.9664182034484
 20
-252.0
 10
193.9664182034484
 20
-253.0
 10
192.9664182034484
 20
-253.0
  0
LINE
  5
2E2
330
422
100
AcDbEntity
  8
DATA
  6
Continuous
 62
     7
100
AcDbLine
 10
201.7664182034485
 20
-251.8082026507986
 30
0.0
 11
201.7664182034485
 21
-253.8082026507986
 31
0.0
  0
LINE
  5
2E3
330
422
100
AcDbEntity
  8
DATA
  6
Continuous
 62
     7
100
AcDbLine
 10
200.7664182034485
 20
-247.1917973492013
 30
0.0
 11
202.7664182034485
 21
-247.1917973492013
 31
0.0
  0
LINE
  5
2E4
330
422
100
AcDbEntity
  8
DATA
  6
Continuous
 62
     7
100
AcDbLine
 10
201.7664182034485
 20
-246.1917973492013
 30
0.0
 11
201.7664182034485
 21
-248.1917973492013
 31
0.0
  0
LINE
  5
2E5
330
422
100
AcDbEntity
  8
DATA
  6
Continuous
 62
     7
100
AcDbLine
 10
190.4664182034484
 20
-244.5999999999999
 30
0.0
 11
196.4664182034485
 21
-244.5999999999999
 31
0.0
  0
LINE
  5
2E6
330
422
100
AcDbEntity
  8
DATA
  6
Continuous
 62
     7
100
AcDbLine
 10
190.4664182034484
 20
-255.4000000000001
 30
0.0
 11
196.4664182034485
 21
-255.4000000000001
 31
0.0
  0
LINE
  5
2E7
330
422
100
AcDbEntity
  8
DATA
  6
Continuous
 62
     7
100
AcDbLine
 10
196.4664182034485
 20
-255.4000000000001
 30
0.0
 11
196.4664182034485
 21
-244.5999999999999
 31
0.0
  0
LINE
  5
2E8
330
422
100
AcDbEntity
  8
DATA
  6
Continuous
 62
     7
100
AcDbLine
 10
190.4664182034484
 20
-255.4000000000001
 30
0.0
 11
190.4664182034484
 21
-254.8999999999996
 31
0.0
  0
LINE
  5
2E9
330
422
100
AcDbEntity
  8
DATA
  6
Continuous
 62
     7
100
AcDbLine
 10
190.4664182034484
 20
-250.5000000000004
 30
0.0
 11
190.4664182034484
 21
-249.4999999999996
 31
0.0
  0
LINE
  5
2EA
330
422
100
AcDbEntity
  8
DATA
  6
Continuous
 62
     7
100
AcDbLine
 10
190.4664182034484
 20
-245.1000000000004
 30
0.0
 11
190.4664182034484
 21
-244.5999999999999
 31
0.0
  0
LINE
  5
2EB
330
422
100
AcDbEntity
  8
DATA
  6
Continuous
 62
     7
100
AcDbLine
 10
190.4664182034484
 20
-244.5999999999999
 30
0.0
 11
190.4664182034484
 21
-245.1000000000004
 31
0.0
  0
LINE
  5
2EC
330
422
100
AcDbEntity
  8
DATA
  6
Continuous
 62
     7
100
AcDbLine
 10
190.4664182034484
 20
-249.4999999999996
 30
0.0
 11
190.4664182034484
 21
-250.0
 31
0.0
  0
ARC
  5
2ED
330
422
100
AcDbEntity
  8
DATA
  6
Continuous
 62
     7
100
AcDbCircle
 10
192.0671324891626
 20
-247.3000000000002
 30
0.0
 40
2.7207142857145
100
AcDbArc
 50
126.0395385635507
 51
233.9604614364436
  0
ARC
  5
2EE
330
422
100
AcDbEntity
  8
DATA
  6
Continuous
 62
     7
100
AcDbCircle
 10
192.0671324891626
 20
-252.6999999999998
 30
0.0
 40
2.720714285714132
100
AcDbArc
 50
126.0395385635564
 51
233.9604614364493
  0
TEXT
  5
2EF
330
422
100
AcDbEntity
  8
DATA
 62
     7
100
AcDbText
 10
270.54
 20
-250.7083333333335
 30
0.0
 40
5.429470486111111
  1
C67P/T
 50
90.0
 41
0.7
 11
265.1105295138889
 21
-250.7083333333335
 31
0.0
100
AcDbText
 73
     3
  0
CIRCLE
  5
2F0
330
422
100
AcDbEntity
  8
DATA
  6
Continuous
 62
     7
100
AcDbCircle
 10
307.1923716474031
 20
-250.0
 30
0.0
 40
10.08152640000026
  0
TEXT
  5
2F1
330
422
100
AcDbEntity
  8
DATA
 62
     7
100
AcDbText
 10
298.8612612922013
 20
-254.3634586127605
 30
0.0
 40
2.394759064414063
  1
30
 50
13.99999999999999
 41
0.7
 11
298.2819166398337
 21
-252.0398341270988
 31
0.0
100
AcDbText
 73
     3
  0
TEXT
  5
2F2
330
422
100
AcDbEntity
  8
DATA
 62
     7
100
AcDbText
 10
313.0522940217815
 20
-253.3923458821266
 30
0.0
 40
2.394759064414063
  1
30
 50
355.0
 41
0.7
 11
313.2610110267421
 21
-251.0066995989501
 31
0.0
100
AcDbText
 73
     3
  0
TEXT
  5
2F3
330
422
100
AcDbEntity
  8
DATA
 62
     7
100
AcDbText
 10
308.2167227114946
 20
-260.1471861405534
 30
0.0
 40
2.394759064414063
  1
8Ω
 50
90.0
 41
0.7
 11
305.8219636470806
 21
-260.1471861405534
 31
0.0
100
AcDbText
 73
     3
  0
TEXT
  5
2F4
330
422
100
AcDbEntity
  8
DATA
 62
     7
100
AcDbText
 10
308.3846244992877
 20
-244.5418167993571
 30
0.0
 40
2.394759064414063
  1
8Ω
 50
90.0
 41
0.7
 11
305.9898654348736
 21
-244.5418167993571
 31
0.0
100
AcDbText
 73
     3
  0
TEXT
  5
2F5
330
422
100
AcDbEntity
  8
DATA
 62
     7
100
AcDbText
 10
310.2923221700858
 20
-256.6922238141229
 30
0.0
 40
2.394759064414063
  1
15
 50
329.9999999999999
 41
0.7
 11
311.4897017022928
 21
-254.6183016283973
 31
0.0
100
AcDbText
 73
     3
  0
CIRCLE
  5
2F6
330
422
100
AcDbEntity
  8
DATA
  6
Continuous
 62
     7
100
AcDbCircle
 10
312.1000000000001
 20
-243.0
 30
0.0
 40
0.5240783107433306
  0
TEXT
  5
2F7
330
422
100
AcDbEntity
  8
DATA
 62
     7
100
AcDbText
 10
300.164446767635
 20
-243.2839325837869
 30
0.0
 40
2.394759064414063
  1
7.5
 50
300.0
 41
0.7
 11
302.2383689533606
 21
-242.0865530515799
 31
0.0
100
AcDbText
 73
     3
  0
TEXT
  5
2F8
330
422
100
AcDbEntity
  8
DATA
 62
     7
100
AcDbText
 10
297.4821850474319
 20
-247.7447007695906
 30
0.0
 40
2.394759064414063
  1
15
 50
329.9999999999999
 41
0.7
 11
298.6795645796389
 21
-245.670778583865
 31
0.0
100
AcDbText
 73
     3
  0
TEXT
  5
2F9
330
422
100
AcDbEntity
  8
DATA
 62
     7
100
AcDbText
 10
301.7126317912858
 20
-258.053210888691
 30
0.0
 40
2.394759064414063
  1
60
 50
30.00000000000003
 41
0.7
 11
300.5152522590788
 21
-255.9792887029654
 31
0.0
100
AcDbText
 73
     3
  0
TEXT
  5
2FA
330
422
100
AcDbEntity
  8
DATA
 62
     7
100
AcDbText
 10
313.2210203123016
 20
-248.591087674146
 30
0.0
 40
2.394759064414063
  1
60
 50
20.00000000000002
 41
0.7
 11
312.4019644738603
 21
-246.3407502527559
 31
0.0
100
AcDbText
 73
     3
  0
LWPOLYLINE
  5
2FB
330
422
100
AcDbEntity
  8
DATA
  6
Continuous
 62
     7
100
AcDbPolyline
 90
        4
 70
     1
 43
0.0
 10
305.2947822937461
 20
-245.7715703361933
 10
306.8833207514929
 20
-245.4914681461996
 10
308.4238827964585
 20
-254.2284296638068
 10
306.8353443387117
 20
-254.5085318538004
  0
LINE
  5
302
330
422
100
AcDbEntity
  8
DATA
  6
Continuous
 62
     7
100
AcDbLine
 10
306.1842190074029
 20
-237.045238576
 30
0.0
 11
307.192371647403
 21
-239.0615438559998
 31
0.0
  0
LINE
  5
303
330
422
100
AcDbEntity
  8
DATA
  6
Continuous
 62
     7
100
AcDbLine
 10
307.192371647403
 20
-239.0615438559998
 30
0.0
 11
308.2005242874028
 21
-237.045238576
 31
0.0
  0
LINE
  5
304
330
422
100
AcDbEntity
  8
DATA
  6
Continuous
 62
     7
100
AcDbLine
 10
306.1842190074029
 20
-237.045238576
 30
0.0
 11
308.2005242874028
 21
-237.045238576
 31
0.0
  0
LINE
  5
305
330
422
100
AcDbEntity
  8
DATA
  6
Continuous
 62
     7
100
AcDbLine
 10
306.1842190074029
 20
-262.954761424
 30
0.0
 11
307.192371647403
 21
-260.9384561440001
 31
0.0
  0
LINE
  5
306
330
422
100
AcDbEntity
  8
DATA
  6
Continuous
 62
     7
100
AcDbLine
 10
307.192371647403
 20
-260.9384561440001
 30
0.0
 11
308.2005242874028
 21
-262.954761424
 31
0.0
  0
LINE
  5
307
330
422
100
AcDbEntity
  8
DATA
  6
Continuous
 62
     7
100
AcDbLine
 10
306.1842190074029
 20
-262.954761424
 30
0.0
 11
308.2005242874028
 21
-262.954761424
 31
0.0
  0
TEXT
  5
308
330
422
100
AcDbEntity
  8
DATA
 62
     7
100
AcDbText
 10
302.8304191624457
 20
-248.6765392288813
 30
0.0
 40
2.394759064414063
  1
70V
 50
280.0
 41
0.7
 11
305.1887964556769
 21
-248.2606936813944
 31
0.0
100
AcDbText
 73
     3
  0
TEXT
  5
309
330
422
100
AcDbEntity
  8
DATA
 62
     7
100
AcDbText
 10
307.6419263198196
 20
-246.5882487459229
 30
0.0
 40
2.394759064414063
  1
100V
 50
279.9999999999999
 41
0.7
 11
310.0003036130508
 21
-246.172403198436
 31
0.0
100
AcDbText
 73
     3
  0
LINE
  5
30A
330
422
100
AcDbEntity
  8
DATA
  6
Continuous
 62
     7
100
AcDbLine
 10
640.625
 20
-225.0
 30
0.0
 11
859.375
 21
-225.0
 31
0.0
  0
CIRCLE
  5
30B
330
422
100
AcDbEntity
  8
DATA
  6
Continuous
 62
     7
100
AcDbCircle
 10
-550.0
 20
-249.9999999996222
 30
0.0
 40
155.9999999999999
  0
ARC
  5
30C
330
422
100
AcDbEntity
  8
DATA
  6
Continuous
 62
     7
100
AcDbCircle
 10
-550.0
 20
-249.9999999996222
 30
0.0
 40
105.0
100
AcDbArc
 50
339.4583694854359
 51
181.9108988595373
  0
LWPOLYLINE
  5
30D
330
422
100
AcDbEntity
  8
DATA
  6
Continuous
 62
     7
100
AcDbPolyline
 90
        4
 70
     1
 43
0.0
 10
-558.4999999999999
 20
-239.4999999996222
 10
-541.5
 20
-239.4999999996222
 10
-541.5
 20
-260.4999999996222
 10
-558.4999999999999
 20
-260.4999999996222
  0
ARC
  5
314
330
422
100
AcDbEntity
  8
DATA
  6
Continuous
 62
     7
100
AcDbCircle
 10
-553.6960165314292
 20
-250.8955313110568
 30
0.0
 40
0.3084800445473747
100
AcDbArc
 50
217.6419024975205
 51
264.2670192893744
  0
LINE
  5
315
330
422
100
AcDbEntity
  8
DATA
  6
Continuous
 62
     7
100
AcDbLine
 10
-548.8348702890937
 20
-242.9718468171546
 30
0.0
 11
-545.3890779306942
 21
-244.4180058699545
 31
0.0
  0
LINE
  5
316
330
422
100
AcDbEntity
  8
DATA
  6
Continuous
 62
     7
100
AcDbLine
 10
-548.8348702890937
 20
-242.9718468171546
 30
0.0
 11
-545.3890779306942
 21
-241.5435317835546
 31
0.0
  0
LINE
  5
317
330
422
100
AcDbEntity
  8
DATA
  6
Continuous
 62
     7
100
AcDbLine
 10
-555.065877930694
 20
-253.9341129291543
 30
0.0
 11
-545.3890779306942
 21
-253.9341129291543
 31
0.0
  0
LINE
  5
318
330
422
100
AcDbEntity
  8
DATA
  6
Continuous
 62
     7
100
AcDbLine
 10
-545.3890779306942
 20
-255.7909166667541
 30
0.0
 11
-553.584011485894
 21
-255.7909166667541
 31
0.0
  0
LINE
  5
319
330
422
100
AcDbEntity
  8
DATA
  6
Continuous
 62
     7
100
AcDbLine
 10
-545.3890779306942
 20
-245.0964559947543
 30
0.0
 11
-553.584011485894
 21
-245.0964559947543
 31
0.0
  0
LINE
  5
31A
330
422
100
AcDbEntity
  8
DATA
  6
Continuous
 62
     7
100
AcDbLine
 10
-545.3890779306942
 20
-246.8818449483548
 30
0.0
 11
-553.584011485894
 21
-246.8818449483548
 31
0.0
  0
LINE
  5
31B
330
422
100
AcDbEntity
  8
DATA
  6
Continuous
 62
     7
100
AcDbLine
 10
-545.3890779306942
 20
-247.8102468171547
 30
0.0
 11
-555.065877930694
 21
-247.8102468171547
 31
0.0
  0
LINE
  5
31C
330
422
100
AcDbEntity
  8
DATA
  6
Continuous
 62
     7
100
AcDbLine
 10
-546.2996164266944
 20
-249.4349525067542
 30
0.0
 11
-549.4061982378936
 21
-249.4349525067542
 31
0.0
  0
LINE
  5
31D
330
422
100
AcDbEntity
  8
DATA
  6
Continuous
 62
     7
100
AcDbLine
 10
-549.2264420010936
 20
-252.9172264011545
 30
0.0
 11
-546.9602225322939
 21
-252.9172264011545
 31
0.0
  0
LINE
  5
31E
330
422
100
AcDbEntity
  8
DATA
  6
Continuous
 62
     7
100
AcDbLine
 10
-546.728114807494
 20
-251.2024684107541
 30
0.0
 11
-548.9777095338937
 21
-251.2024684107541
 31
0.0
  0
ARC
  5
31F
330
422
100
AcDbEntity
  8
DATA
  6
Continuous
 62
     7
100
AcDbCircle
 10
-552.5810692266938
 20
-244.7381821515542
 30
0.0
 40
2.495504882466497
100
AcDbArc
 50
174.6908562215438
 51
233.9911991542394
  0
LINE
  5
320
330
422
100
AcDbEntity
  8
DATA
  6
Continuous
 62
     7
100
AcDbLine
 10
-552.030710903494
 20
-243.7395654219545
 30
0.0
 11
-553.583992132294
 21
-243.7395654219545
 31
0.0
  0
LINE
  5
321
330
422
100
AcDbEntity
  8
DATA
  6
Continuous
 62
     7
100
AcDbLine
 10
-552.030710903494
 20
-243.7395654219545
 30
0.0
 11
-552.030710903494
 21
-242.1327134283543
 31
0.0
  0
LINE
  5
322
330
422
100
AcDbEntity
  8
DATA
  6
Continuous
 62
     7
100
AcDbLine
 10
-552.030710903494
 20
-242.1327134283543
 30
0.0
 11
-553.583992132294
 21
-242.1327134283543
 31
0.0
  0
ARC
  5
323
330
422
100
AcDbEntity
  8
DATA
  6
Continuous
 62
     7
100
AcDbCircle
 10
-553.604932727494
 20
-244.4214121035544
 30
0.0
 40
0.6753717665780613
100
AcDbArc
 50
179.7118487927509
 51
271.7759870056735
  0
ARC
  5
324
330
422
100
AcDbEntity
  8
DATA
  6
Continuous
 62
     7
100
AcDbCircle
 10
-553.604932727494
 20
-244.4146093131545
 30
0.0
 40
0.6753683131384248
100
AcDbArc
 50
88.22401299430046
 51
180.2881512072283
  0
ARC
  5
325
330
422
100
AcDbEntity
  8
DATA
  6
Continuous
 62
     7
100
AcDbCircle
 10
-552.5810692266938
 20
-244.2763762251544
 30
0.0
 40
2.495500829608681
100
AcDbArc
 50
126.0088008457593
 51
185.3091437784588
  0
ARC
  5
326
330
422
100
AcDbEntity
  8
DATA
  6
Continuous
 62
     7
100
AcDbCircle
 10
-553.5292891818941
 20
-243.2604864075543
 30
0.0
 40
1.129089225448057
100
AcDbArc
 50
92.77699544998975
 51
117.3596066671463
  0
CIRCLE
  5
327
330
422
100
AcDbEntity
  8
DATA
  6
Continuous
 62
     7
100
AcDbCircle
 10
-550.1739168426937
 20
-243.0700469835543
 30
0.0
 40
0.9194701823998912
  0
LINE
  5
328
330
422
100
AcDbEntity
  8
DATA
  6
Continuous
 62
     7
100
AcDbLine
 10
-555.065868253894
 20
-258.7725129291544
 30
0.0
 11
-555.065868253894
 21
-253.9341129291543
 31
0.0
  0
LINE
  5
329
330
422
100
AcDbEntity
  8
DATA
  6
Continuous
 62
     7
100
AcDbLine
 10
-555.065868253894
 20
-258.7725129291544
 30
0.0
 11
-552.0307012266941
 21
-258.7725129291544
 31
0.0
  0
LINE
  5
32A
330
422
100
AcDbEntity
  8
DATA
  6
Continuous
 62
     7
100
AcDbLine
 10
-552.030710903494
 20
-258.7725129291544
 30
0.0
 11
-552.030710903494
 21
-257.1478169163543
 31
0.0
  0
LINE
  5
32B
330
422
100
AcDbEntity
  8
DATA
  6
Continuous
 62
     7
100
AcDbLine
 10
-552.030710903494
 20
-257.1478169163543
 30
0.0
 11
-553.583992132294
 21
-257.1478169163543
 31
0.0
  0
LINE
  5
32C
330
422
100
AcDbEntity
  8
DATA
  6
Continuous
 62
     7
100
AcDbLine
 10
-555.065868253894
 20
-247.8102468171547
 30
0.0
 11
-555.0658585770941
 21
-251.2024684107541
 31
0.0
  0
LINE
  5
32D
330
422
100
AcDbEntity
  8
DATA
  6
Continuous
 62
     7
100
AcDbLine
 10
-554.1553200810942
 20
-249.4349428299543
 30
0.0
 11
-554.1553200810942
 21
-250.3097836107546
 31
0.0
  0
LINE
  5
32E
330
422
100
AcDbEntity
  8
DATA
  6
Continuous
 62
     7
100
AcDbLine
 10
-554.1553200810942
 20
-249.4349525067542
 30
0.0
 11
-550.3345904298937
 21
-249.4349525067542
 31
0.0
  0
LINE
  5
32F
330
422
100
AcDbEntity
  8
DATA
  6
Continuous
 62
     7
100
AcDbLine
 10
-550.3345904298937
 20
-249.4349428299543
 30
0.0
 11
-550.3345904298937
 21
-250.3097836107546
 31
0.0
  0
LINE
  5
330
330
422
100
AcDbEntity
  8
DATA
  6
Continuous
 62
     7
100
AcDbLine
 10
-553.726831377094
 20
-251.2024684107541
 30
0.0
 11
-550.7630791338937
 21
-251.2024684107541
 31
0.0
  0
ARC
  5
331
330
422
100
AcDbEntity
  8
DATA
  6
Continuous
 62
     7
100
AcDbCircle
 10
-553.5292891818941
 20
-245.7540719691543
 30
0.0
 40
1.129087618798101
100
AcDbArc
 50
242.640393332855
 51
267.2230045500148
  0
ARC
  5
332
330
422
100
AcDbEntity
  8
DATA
  6
Continuous
 62
     7
100
AcDbCircle
 10
-553.604932727494
 20
-256.4727633483545
 30
0.0
 40
0.6753717665780613
100
AcDbArc
 50
179.7118487927509
 51
271.7759870056735
  0
ARC
  5
333
330
422
100
AcDbEntity
  8
DATA
  6
Continuous
 62
     7
100
AcDbCircle
 10
-553.604932727494
 20
-256.4659702347545
 30
0.0
 40
0.6753683131384248
100
AcDbArc
 50
88.22401299430046
 51
180.2881512072283
  0
LINE
  5
334
330
422
100
AcDbEntity
  8
DATA
  6
Continuous
 62
     7
100
AcDbLine
 10
-553.5125773482938
 20
-252.9164425803543
 30
0.0
 11
-550.9416257706939
 21
-252.9164425803543
 31
0.0
  0
LINE
  5
335
330
422
100
AcDbEntity
  8
DATA
  6
Continuous
 62
     7
100
AcDbLine
 10
-549.4061982378936
 20
-249.4349428299543
 30
0.0
 11
-549.4061982378936
 21
-250.3097836107546
 31
0.0
  0
ARC
  5
336
330
422
100
AcDbEntity
  8
DATA
  6
Continuous
 62
     7
100
AcDbCircle
 10
-553.228853572294
 20
-251.0794569291544
 30
0.0
 40
1.841119010891438
100
AcDbArc
 50
183.8309816091104
 51
261.1351473098017
  0
LINE
  5
337
330
422
100
AcDbEntity
  8
DATA
  6
Continuous
 62
     7
100
AcDbLine
 10
-545.3890779306942
 20
-245.0964559947543
 30
0.0
 11
-545.3890779306942
 21
-246.8818449483548
 31
0.0
  0
LINE
  5
338
330
422
100
AcDbEntity
  8
DATA
  6
Continuous
 62
     7
100
AcDbLine
 10
-545.3890779306942
 20
-241.5435317835546
 30
0.0
 11
-545.3890779306942
 21
-244.4180058699545
 31
0.0
  0
LINE
  5
339
330
422
100
AcDbEntity
  8
DATA
  6
Continuous
 62
     7
100
AcDbLine
 10
-545.3890779306942
 20
-253.9341129291543
 30
0.0
 11
-545.3890779306942
 21
-255.7909166667541
 31
0.0
  0
LINE
  5
33A
330
422
100
AcDbEntity
  8
DATA
  6
Continuous
 62
     7
100
AcDbLine
 10
-545.3890779306942
 20
-247.8102468171547
 30
0.0
 11
-545.389085762845
 21
-251.2211157283592
 31
0.0
  0
LINE
  5
33B
330
422
100
AcDbEntity
  8
DATA
  6
Continuous
 62
     7
100
AcDbLine
 10
-546.2996261034943
 20
-249.4349428299543
 30
0.0
 11
-546.2996261034943
 21
-250.3097836107546
 31
0.0
  0
ARC
  5
33C
330
422
100
AcDbEntity
  8
DATA
  6
Continuous
 62
     7
100
AcDbCircle
 10
-547.223276663494
 20
-251.0978138187544
 30
0.0
 40
1.838330661480044
100
AcDbArc
 50
278.2269238590172
 51
356.1541266921568
  0
ARC
  5
33D
330
422
100
AcDbEntity
  8
DATA
  6
Continuous
 62
     7
100
AcDbCircle
 10
-552.4583113153933
 20
-250.3201140424062
 30
0.0
 40
1.697040208328605
100
AcDbArc
 50
179.6512199376235
 51
192.8264828068774
  0
ARC
  5
33E
330
422
100
AcDbEntity
  8
DATA
  6
Continuous
 62
     7
100
AcDbCircle
 10
-553.1757863022622
 20
-250.5107185186135
 30
0.0
 40
0.9555239106459644
100
AcDbArc
 50
191.2331036226579
 51
216.8620088940571
  0
ARC
  5
33F
330
422
100
AcDbEntity
  8
DATA
  6
Continuous
 62
     7
100
AcDbCircle
 10
-550.7938939795585
 20
-250.8955313110568
 30
0.0
 40
0.3084800445473355
100
AcDbArc
 50
275.7329807106257
 51
322.3580975024796
  0
ARC
  5
340
330
422
100
AcDbEntity
  8
DATA
  6
Continuous
 62
     7
100
AcDbCircle
 10
-552.0315991955948
 20
-250.3201140424062
 30
0.0
 40
1.697040208328626
100
AcDbArc
 50
347.1735171931225
 51
0.3487800623765907
  0
ARC
  5
341
330
422
100
AcDbEntity
  8
DATA
  6
Continuous
 62
     7
100
AcDbCircle
 10
-551.3141242087256
 20
-250.5107185186135
 30
0.0
 40
0.9555239106456999
100
AcDbArc
 50
323.1379911059648
 51
348.7668963773409
  0
ARC
  5
342
330
422
100
AcDbEntity
  8
DATA
  6
Continuous
 62
     7
100
AcDbCircle
 10
-551.004921719494
 20
-251.9800379979543
 30
0.0
 40
0.9385413784560327
100
AcDbArc
 50
273.8670063598171
 51
358.3616345678826
  0
ARC
  5
343
330
422
100
AcDbEntity
  8
DATA
  6
Continuous
 62
     7
100
AcDbCircle
 10
-549.1276999338936
 20
-251.9791767627544
 30
0.0
 40
0.9394740052484287
100
AcDbArc
 50
181.6892821046499
 51
266.078282982654
  0
ARC
  5
344
330
422
100
AcDbEntity
  8
DATA
  6
Continuous
 62
     7
100
AcDbCircle
 10
-548.9468946882289
 20
-250.8955313110568
 30
0.0
 40
0.3084800445473747
100
AcDbArc
 50
217.6419024975205
 51
264.2670192893744
  0
ARC
  5
345
330
422
100
AcDbEntity
  8
DATA
  6
Continuous
 62
     7
100
AcDbCircle
 10
-547.7091894721931
 20
-250.3201140424062
 30
0.0
 40
1.69704020832815
100
AcDbArc
 50
179.6512199376234
 51
192.8264828068809
  0
ARC
  5
346
330
422
100
AcDbEntity
  8
DATA
  6
Continuous
 62
     7
100
AcDbCircle
 10
-548.4266644590619
 20
-250.5107185186135
 30
0.0
 40
0.9555239106458531
100
AcDbArc
 50
191.2331036226592
 51
216.8620088940652
  0
ARC
  5
347
330
422
100
AcDbEntity
  8
DATA
  6
Continuous
 62
     7
100
AcDbCircle
 10
-546.7589296531589
 20
-250.8955313110568
 30
0.0
 40
0.3084800445473355
100
AcDbArc
 50
275.7329807106257
 51
322.3580975023998
  0
ARC
  5
348
330
422
100
AcDbEntity
  8
DATA
  6
Continuous
 62
     7
100
AcDbCircle
 10
-547.9966348691947
 20
-250.3201140424062
 30
0.0
 40
1.697040208328293
100
AcDbArc
 50
347.17351719312
 51
0.3487800623766475
  0
ARC
  5
349
330
422
100
AcDbEntity
  8
DATA
  6
Continuous
 62
     7
100
AcDbCircle
 10
-547.2791598823257
 20
-250.5107185186135
 30
0.0
 40
0.9555239106454271
100
AcDbArc
 50
323.1379911059525
 51
348.7668963773381
  0
ARC
  5
34A
330
422
100
AcDbEntity
  8
DATA
  6
Continuous
 62
     7
100
AcDbCircle
 10
-550.0
 20
-249.9999999996219
 30
0.0
 40
130.0000000000001
100
AcDbArc
 50
171.8185954619352
 51
333.2948106151291
  0
ARC
  5
34B
330
422
100
AcDbEntity
  8
DATA
  6
Continuous
 62
     7
100
AcDbCircle
 10
-521.9365295243814
 20
-362.968170869258
 30
0.0
 40
103.5930799398509
100
AcDbArc
 50
29.15520539068413
 51
108.02992218089
  0
ARC
  5
34C
330
422
100
AcDbEntity
  8
DATA
  6
Continuous
 62
     7
100
AcDbCircle
 10
-594.1722500228216
 20
-164.1386358282498
 30
0.0
 40
108.0675381475697
100
AcDbArc
 50
215.6164614959012
 51
291.822524146766
  0
CIRCLE
  5
34D
330
422
100
AcDbEntity
  8
DATA
  6
Continuous
 62
     7
100
AcDbCircle
 10
-550.0
 20
-249.9999999996219
 30
0.0
 40
144.9999999999999
  0
CIRCLE
  5
34E
330
422
100
AcDbEntity
  8
DATA
  6
Continuous
 62
     7
100
AcDbCircle
 10
-550.0
 20
-249.9999999996222
 30
0.0
 40
133.9999999999999
  0
CIRCLE
  5
34F
330
422
100
AcDbEntity
  8
DATA
  6
Continuous
 62
     7
100
AcDbCircle
 10
-519.5218752336156
 20
-371.21301746446
 30
0.0
 40
3.999999999999943
  0
CIRCLE
  5
350
330
422
100
AcDbEntity
  8
DATA
  6
Continuous
 62
     7
100
AcDbCircle
 10
-579.5218752336157
 20
-371.21301746446
 30
0.0
 40
3.999999999999943
  0
ARC
  5
351
330
422
100
AcDbEntity
  8
DATA
  6
Continuous
 62
     7
100
AcDbCircle
 10
-519.5218752336152
 20
-371.8809676245041
 30
0.0
 40
5.999999999999699
100
AcDbArc
 50
19.8711477911192
 51
194.9651883646774
  0
LINE
  5
352
330
422
100
AcDbEntity
  8
DATA
  6
Continuous
 62
     7
100
AcDbLine
 10
-513.8791187654159
 20
-369.8415315650527
 30
0.0
 11
-512.6390921160747
 21
-374.5157121089333
 31
0.0
  0
LINE
  5
353
330
422
100
AcDbEntity
  8
DATA
  6
Continuous
 62
     7
100
AcDbLine
 10
-525.318372637585
 20
-373.4303603590188
 30
0.0
 11
-524.6050963973308
 21
-377.4954856883757
 31
0.0
  0
ARC
  5
354
330
422
100
AcDbEntity
  8
DATA
  6
Continuous
 62
     7
100
AcDbCircle
 10
-579.4017587808967
 20
-371.9337161807735
 30
0.0
 40
6.000000000000329
100
AcDbArc
 50
355.3609498450109
 51
162.0945446087493
  0
LINE
  5
355
330
422
100
AcDbEntity
  8
DATA
  6
Continuous
 62
     7
100
AcDbLine
 10
-573.4214148584714
 20
-372.4189857651412
 30
0.0
 11
-574.3432347201844
 21
-377.700457803649
 31
0.0
  0
LINE
  5
356
330
422
100
AcDbEntity
  8
DATA
  6
Continuous
 62
     7
100
AcDbLine
 10
-585.1111495893865
 20
-370.0890328486226
 30
0.0
 11
-586.3598592641303
 21
-374.8117007103033
 31
0.0
  0
LINE
  5
357
330
422
100
AcDbEntity
  8
DATA
  6
Continuous
 62
     7
100
AcDbLine
 10
-519.5218752336156
 20
-369.2130174644599
 30
0.0
 11
-519.5218752336156
 21
-373.2130174644599
 31
0.0
  0
LINE
  5
358
330
422
100
AcDbEntity
  8
DATA
  6
Continuous
 62
     7
100
AcDbLine
 10
-517.5218752336157
 20
-371.2130174644599
 30
0.0
 11
-521.5218752336157
 21
-371.2130174644599
 31
0.0
  0
LINE
  5
359
330
422
100
AcDbEntity
  8
DATA
  6
Continuous
 62
     7
100
AcDbLine
 10
-579.5218752336157
 20
-369.2130174644599
 30
0.0
 11
-579.5218752336157
 21
-373.2130174644599
 31
0.0
  0
LINE
  5
35A
330
422
100
AcDbEntity
  8
DATA
  6
Continuous
 62
     7
100
AcDbLine
 10
-577.5218752336156
 20
-371.2476215889765
 30
0.0
 11
-581.5218752336156
 21
-371.2476215889765
 31
0.0
  0
LINE
  5
35B
330
422
100
AcDbEntity
  8
DATA
  6
Continuous
 62
     7
100
AcDbLine
 10
-500.3871055238725
 20
-337.5413966047965
 30
0.0
 11
-531.4534331186499
 21
-289.5999626957878
 31
0.0
  0
LINE
  5
35C
330
422
100
AcDbEntity
  8
DATA
  6
Continuous
 62
     7
100
AcDbLine
 10
-516.6520907814097
 20
-345.1203251898998
 30
0.0
 11
-533.2495391807949
 21
-290.4341963888687
 31
0.0
  0
LINE
  5
35D
330
422
100
AcDbEntity
  8
DATA
  6
Continuous
 62
     7
100
AcDbLine
 10
-516.6520907814097
 20
-345.1203251898998
 30
0.0
 11
-500.3871055238725
 21
-337.5413966047965
 31
0.0
  0
ARC
  5
35E
330
422
100
AcDbEntity
  8
DATA
  6
Continuous
 62
     7
100
AcDbCircle
 10
-532.2926406208531
 20
-290.1437740309457
 30
0.0
 40
1.000000000000127
100
AcDbArc
 50
32.94347181059071
 51
196.8832436627529
  0
LINE
  5
35F
330
422
100
AcDbEntity
  8
DATA
  6
Continuous
 62
     7
100
AcDbLine
 10
-455.6075077605791
 20
-283.9688932233401
 30
0.0
 11
-510.221855089989
 21
-267.2126746385732
 31
0.0
  0
LINE
  5
360
330
422
100
AcDbEntity
  8
DATA
  6
Continuous
 62
     7
100
AcDbLine
 10
-463.1955679453239
 20
-300.2296203460333
 30
0.0
 11
-511.0615170766521
 21
-269.00624944585
 31
0.0
  0
LINE
  5
361
330
422
100
AcDbEntity
  8
DATA
  6
Continuous
 62
     7
100
AcDbLine
 10
-463.1955679453239
 20
-300.2296203460333
 30
0.0
 11
-455.6075077605791
 21
-283.9688932233401
 31
0.0
  0
ARC
  5
362
330
422
100
AcDbEntity
  8
DATA
  6
Continuous
 62
     7
100
AcDbCircle
 10
-510.5151701454288
 20
-268.1686904743484
 30
0.0
 40
1.000000000000287
100
AcDbArc
 50
72.94347181059281
 51
236.8832436627483
  0
LINE
  5
363
330
422
100
AcDbEntity
  8
DATA
  6
Continuous
 62
     7
100
AcDbLine
 10
-599.6128944761275
 20
-337.5413966047965
 30
0.0
 11
-568.54656688135
 21
-289.5999626957878
 31
0.0
  0
LINE
  5
364
330
422
100
AcDbEntity
  8
DATA
  6
Continuous
 62
     7
100
AcDbLine
 10
-583.3479092185901
 20
-345.1203251898998
 30
0.0
 11
-566.7504608192053
 21
-290.4341963888687
 31
0.0
  0
LINE
  5
365
330
422
100
AcDbEntity
  8
DATA
  6
Continuous
 62
     7
100
AcDbLine
 10
-583.3479092185901
 20
-345.1203251898998
 30
0.0
 11
-599.6128944761275
 21
-337.5413966047965
 31
0.0
  0
ARC
  5
366
330
422
100
AcDbEntity
  8
DATA
  6
Continuous
 62
     7
100
AcDbCircle
 10
-567.7073593791468
 20
-290.1437740309457
 30
0.0
 40
0.9999999999999964
100
AcDbArc
 50
343.1167563372471
 51
147.0565281894093
  0
LINE
  5
367
330
422
100
AcDbEntity
  8
DATA
  6
Continuous
 62
     7
100
AcDbLine
 10
-644.3924922394208
 20
-283.9688932233401
 30
0.0
 11
-604.4554370915293
 21
-271.7158121482579
 31
0.0
  0
LINE
  5
368
330
422
100
AcDbEntity
  8
DATA
  6
Continuous
 62
     7
100
AcDbLine
 10
-636.804432054676
 20
-300.2296203460333
 30
0.0
 11
-593.8432529511064
 21
-272.2056731810116
 31
0.0
  0
LINE
  5
369
330
422
100
AcDbEntity
  8
DATA
  6
Continuous
 62
     7
100
AcDbLine
 10
-636.804432054676
 20
-300.2296203460333
 30
0.0
 11
-644.3924922394208
 21
-283.9688932233401
 31
0.0
  0
CIRCLE
  5
36A
330
422
100
AcDbEntity
  8
DATA
  6
Continuous
 62
     7
100
AcDbCircle
 10
-671.4828324180305
 20
-280.0919766820277
 30
0.0
 40
4.0
  0
ARC
  5
36B
330
422
100
AcDbEntity
  8
DATA
  6
Continuous
 62
     7
100
AcDbCircle
 10
-672.1507825780747
 20
-280.0919766820282
 30
0.0
 40
5.999999999999592
100
AcDbArc
 50
289.8711477911196
 51
104.9651883646774
  0
LINE
  5
36C
330
422
100
AcDbEntity
  8
DATA
  6
Continuous
 62
     7
100
AcDbLine
 10
-670.1113465186233
 20
-285.7347331502276
 30
0.0
 11
-674.6421981453136
 21
-286.9367356635154
 31
0.0
  0
LINE
  5
36D
330
422
100
AcDbEntity
  8
DATA
  6
Continuous
 62
     7
100
AcDbLine
 10
-673.7001753125895
 20
-274.2954792780584
 30
0.0
 11
-677.5782226762325
 21
-274.9759303881609
 31
0.0
  0
LINE
  5
36E
330
422
100
AcDbEntity
  8
DATA
  6
Continuous
 62
     7
100
AcDbLine
 10
-669.4828324180305
 20
-280.0919766820277
 30
0.0
 11
-673.4828324180305
 21
-280.0919766820277
 31
0.0
  0
LINE
  5
36F
330
422
100
AcDbEntity
  8
DATA
  6
Continuous
 62
     7
100
AcDbLine
 10
-671.4828324180305
 20
-282.0919766820277
 30
0.0
 11
-671.4828324180305
 21
-278.0919766820277
 31
0.0
  0
LINE
  5
370
330
422
100
AcDbEntity
  8
DATA
  6
Continuous
 62
     7
100
AcDbLine
 10
-20.00000000000019
 20
-250.1375712196038
 30
0.0
 11
-272.0
 21
-250.1375712196038
 31
0.0
  0
LINE
  5
371
330
422
100
AcDbEntity
  8
DATA
  6
Continuous
 62
     7
100
AcDbLine
 10
-29.65100503297517
 20
-217.2642673206157
 30
0.0
 11
-271.923244204406
 21
-208.8039343022607
 31
0.0
  0
ARC
  5
372
330
422
100
AcDbEntity
  8
DATA
  6
Continuous
 62
     7
100
AcDbCircle
 10
-30.00000000000024
 20
-227.2581755908064
 30
0.0
 40
10.00000000000005
100
AcDbArc
 50
0.0
 51
87.99999999999956
  0
ARC
  5
373
330
422
100
AcDbEntity
  8
DATA
  6
Continuous
 62
     7
100
AcDbCircle
 10
-291.2631578944439
 20
-206.4473684218484
 30
0.0
 40
112.5470938683752
100
AcDbArc
 50
92.41215690916035
 51
115.6603300266921
  0
ARC
  5
374
330
422
100
AcDbEntity
  8
DATA
  6
Continuous
 62
     7
100
AcDbCircle
 10
-197.5908025011256
 20
-514.0490396270011
 30
0.0
 40
417.8043911310437
100
AcDbArc
 50
66.66219105138409
 51
88.61605901991671
  0
ARC
  5
375
330
422
100
AcDbEntity
  8
DATA
  6
Continuous
 62
     7
100
AcDbCircle
 10
-469.4656615800014
 20
-10535.45892925273
 30
0.0
 40
10442.89973652082
100
AcDbArc
 50
88.45278548899919
 51
89.04822341851126
  0
ARC
  5
376
330
422
100
AcDbEntity
  8
DATA
  6
Continuous
 62
     7
100
AcDbCircle
 10
-291.2631578944439
 20
-293.5526315781515
 30
0.0
 40
112.5470938683753
100
AcDbArc
 50
244.3396699733079
 51
267.5878430908396
  0
ARC
  5
377
330
422
100
AcDbEntity
  8
DATA
  6
Continuous
 62
     7
100
AcDbCircle
 10
-197.5908025011256
 20
14.04903962700092
 30
0.0
 40
417.8043911310436
100
AcDbArc
 50
271.3839409800832
 51
293.3378089486159
  0
ARC
  5
378
330
422
100
AcDbEntity
  8
DATA
  6
Continuous
 62
     7
100
AcDbCircle
 10
-469.4656615800026
 20
10035.45892925273
 30
0.0
 40
10442.89973652082
100
AcDbArc
 50
270.9517765814888
 51
271.5472145110007
  0
LINE
  5
379
330
422
100
AcDbEntity
  8
DATA
  6
Continuous
 62
     7
100
AcDbLine
 10
-20.00000000000001
 20
-148.7909492714394
 30
0.0
 11
-20.00000000000001
 21
-351.2090507285605
 31
0.0
  0
ARC
  5
37A
330
422
100
AcDbEntity
  8
DATA
  6
Continuous
 62
     7
100
AcDbCircle
 10
-40.00000000000007
 20
-148.7909492714394
 30
0.0
 40
20.00000000000005
100
AcDbArc
 50
0.0
 51
66.66219105138395
  0
ARC
  5
37B
330
422
100
AcDbEntity
  8
DATA
  6
Continuous
 62
     7
100
AcDbCircle
 10
-40.00000000000007
 20
-351.2090507285605
 30
0.0
 40
20.00000000000008
100
AcDbArc
 50
293.337808948616
 51
0.0
  0
LINE
  5
37C
330
422
100
AcDbEntity
  8
DATA
  6
Continuous
 62
     7
100
AcDbLine
 10
-350.0
 20
-144.9999999996221
 30
0.0
 11
-340.0
 21
-115.9999999996221
 31
0.0
  0
LINE
  5
37D
330
422
100
AcDbEntity
  8
DATA
  6
Continuous
 62
     7
100
AcDbLine
 10
-350.0
 20
-354.9999999996222
 30
0.0
 11
-340.0
 21
-383.9999999996221
 31
0.0
  0
LINE
  5
37E
330
422
100
AcDbEntity
  8
DATA
  6
Continuous
 62
     7
100
AcDbLine
 10
-0.0000000000001847
 20
-241.2039420252982
 30
0.0
 11
-0.0000000000001847
 21
-258.7960579747014
 31
0.0
  0
LINE
  5
37F
330
422
100
AcDbEntity
  8
DATA
  6
Continuous
 62
     7
100
AcDbLine
 10
-20.00000000000001
 20
-216.0000000000001
 30
0.0
 11
-18.44008875285904
 21
-216.0000000000001
 31
0.0
  0
LINE
  5
380
330
422
100
AcDbEntity
  8
DATA
  6
Continuous
 62
     7
100
AcDbLine
 10
-18.44008875285904
 20
-284.0000000000001
 30
0.0
 11
-20.00000000000001
 21
-284.0000000000001
 31
0.0
  0
LINE
  5
381
330
422
100
AcDbEntity
  8
DATA
  6
Continuous
 62
     7
100
AcDbLine
 10
-11.8726842528613
 20
-219.4317182515293
 30
0.0
 11
-2.686116562504437
 21
-232.6384137469159
 31
0.0
  0
LINE
  5
382
330
422
100
AcDbEntity
  8
DATA
  6
Continuous
 62
     7
100
AcDbLine
 10
-11.8726842528613
 20
-280.5682817484708
 30
0.0
 11
-2.686116562504437
 21
-267.3615862530843
 31
0.0
  0
CIRCLE
  5
383
330
422
100
AcDbEntity
  8
DATA
  6
Continuous
 62
     7
100
AcDbCircle
 10
-12.50000000000018
 20
-250.0000000000001
 30
0.0
 40
6.0
  0
CIRCLE
  5
384
330
422
100
AcDbEntity
  8
DATA
  6
Continuous
 62
     7
100
AcDbCircle
 10
-14.00000000000019
 20
-233.7500000000001
 30
0.0
 40
4.0
  0
CIRCLE
  5
385
330
422
100
AcDbEntity
  8
DATA
  6
Continuous
 62
     7
100
AcDbCircle
 10
-14.00000000000019
 20
-266.25
 30
0.0
 40
3.75
  0
ARC
  5
386
330
422
100
AcDbEntity
  8
DATA
  6
Continuous
 62
     7
100
AcDbCircle
 10
-15.00000000000018
 20
-241.2039420252982
 30
0.0
 40
15.0
100
AcDbArc
 50
0.0
 51
34.8224462827904
  0
ARC
  5
387
330
422
100
AcDbEntity
  8
DATA
  6
Continuous
 62
     7
100
AcDbCircle
 10
-15.00000000000018
 20
-258.7960579747014
 30
0.0
 40
15.00000000000023
100
AcDbArc
 50
325.1775537172081
 51
0.0
  0
ARC
  5
388
330
422
100
AcDbEntity
  8
DATA
  6
Continuous
 62
     7
100
AcDbCircle
 10
-18.44008875285898
 20
-224.0000000000001
 30
0.0
 40
8.000000000000062
100
AcDbArc
 50
34.8224462827919
 51
90.00000000000039
  0
ARC
  5
389
330
422
100
AcDbEntity
  8
DATA
  6
Continuous
 62
     7
100
AcDbCircle
 10
-18.44008875285898
 20
-276.0000000000001
 30
0.0
 40
8.0
100
AcDbArc
 50
269.9999999999996
 51
325.1775537172081
  0
LINE
  5
38A
330
422
100
AcDbEntity
  8
DATA
  6
Continuous
 62
     7
100
AcDbLine
 10
292.286519276487
 20
-147.9113116571537
 30
0.0
 11
250.0
 21
-139.4999999996221
 31
0.0
  0
LINE
  5
38B
330
422
100
AcDbEntity
  8
DATA
  6
Continuous
 62
     7
100
AcDbLine
 10
328.1352993213808
 20
-171.8647006786194
 30
0.0
 11
292.286519276487
 21
-147.9113116571537
 31
0.0
  0
LINE
  5
38C
330
422
100
AcDbEntity
  8
DATA
  6
Continuous
 62
     7
100
AcDbLine
 10
352.0886883428462
 20
-207.7134807235129
 30
0.0
 11
328.1352993213808
 21
-171.8647006786194
 31
0.0
  0
LINE
  5
38D
330
422
100
AcDbEntity
  8
DATA
  6
Continuous
 62
     7
100
AcDbLine
 10
360.5000000003777
 20
-250.0000000000001
 30
0.0
 11
352.0886883428462
 21
-207.7134807235129
 31
0.0
  0
LINE
  5
38E
330
422
100
AcDbEntity
  8
DATA
  6
Continuous
 62
     7
100
AcDbLine
 10
352.0886883428462
 20
-292.286519276487
 30
0.0
 11
360.5000000003777
 21
-250.0000000000001
 31
0.0
  0
LINE
  5
38F
330
422
100
AcDbEntity
  8
DATA
  6
Continuous
 62
     7
100
AcDbLine
 10
328.1352993213807
 20
-328.1352993213808
 30
0.0
 11
352.0886883428462
 21
-292.286519276487
 31
0.0
  0
LINE
  5
390
330
422
100
AcDbEntity
  8
DATA
  6
Continuous
 62
     7
100
AcDbLine
 10
292.286519276487
 20
-352.0886883428462
 30
0.0
 11
328.1352993213807
 21
-328.1352993213808
 31
0.0
  0
LINE
  5
391
330
422
100
AcDbEntity
  8
DATA
  6
Continuous
 62
     7
100
AcDbLine
 10
250.0
 20
-360.5000000003777
 30
0.0
 11
292.286519276487
 21
-352.0886883428462
 31
0.0
  0
LINE
  5
392
330
422
100
AcDbEntity
  8
DATA
  6
Continuous
 62
     7
100
AcDbLine
 10
207.7134807235129
 20
-352.0886883428462
 30
0.0
 11
250.0
 21
-360.5000000003777
 31
0.0
  0
LINE
  5
393
330
422
100
AcDbEntity
  8
DATA
  6
Continuous
 62
     7
100
AcDbLine
 10
171.8647006786193
 20
-328.1352993213807
 30
0.0
 11
207.7134807235129
 21
-352.0886883428462
 31
0.0
  0
LINE
  5
394
330
422
100
AcDbEntity
  8
DATA
  6
Continuous
 62
     7
100
AcDbLine
 10
147.9113116571537
 20
-292.286519276487
 30
0.0
 11
171.8647006786193
 21
-328.1352993213807
 31
0.0
  0
LINE
  5
395
330
422
100
AcDbEntity
  8
DATA
  6
Continuous
 62
     7
100
AcDbLine
 10
139.4999999996221
 20
-250.0
 30
0.0
 11
147.9113116571537
 21
-292.286519276487
 31
0.0
  0
LINE
  5
396
330
422
100
AcDbEntity
  8
DATA
  6
Continuous
 62
     7
100
AcDbLine
 10
147.9113116571537
 20
-207.7134807235129
 30
0.0
 11
139.4999999996221
 21
-250.0
 31
0.0
  0
LINE
  5
397
330
422
100
AcDbEntity
  8
DATA
  6
Continuous
 62
     7
100
AcDbLine
 10
171.8647006786193
 20
-171.8647006786193
 30
0.0
 11
147.9113116571537
 21
-207.7134807235129
 31
0.0
  0
LINE
  5
398
330
422
100
AcDbEntity
  8
DATA
  6
Continuous
 62
     7
100
AcDbLine
 10
207.7134807235129
 20
-147.9113116571537
 30
0.0
 11
171.8647006786193
 21
-171.8647006786193
 31
0.0
  0
LINE
  5
399
330
422
100
AcDbEntity
  8
DATA
  6
Continuous
 62
     7
100
AcDbLine
 10
250.0
 20
-139.4999999996221
 30
0.0
 11
207.7134807235129
 21
-147.9113116571537
 31
0.0
  0
LINE
  5
39A
330
422
100
AcDbEntity
  8
DATA
  6
Continuous
 62
     7
100
AcDbLine
 10
-29.65100503297517
 20
-183.2642673206157
 30
0.0
 11
-271.923244204406
 21
-174.8039343022607
 31
0.0
  0
ARC
  5
39B
330
422
100
AcDbEntity
  8
DATA
  6
Continuous
 62
     7
100
AcDbCircle
 10
-30.00000000000024
 20
-193.2581755908064
 30
0.0
 40
10.00000000000005
100
AcDbArc
 50
0.0
 51
87.99999999999956
  0
LINE
  5
39C
330
422
100
AcDbEntity
  8
DATA
  6
Continuous
 62
     7
100
AcDbLine
 10
-29.65100503297517
 20
-149.2642673206156
 30
0.0
 11
-271.923244204406
 21
-140.8039343022607
 31
0.0
  0
ARC
  5
39D
330
422
100
AcDbEntity
  8
DATA
  6
Continuous
 62
     7
100
AcDbCircle
 10
-30.00000000000024
 20
-159.2581755908064
 30
0.0
 40
10.00000000000005
100
AcDbArc
 50
0.0
 51
87.99999999999956
  0
LINE
  5
39E
330
422
100
AcDbEntity
  8
DATA
  6
Continuous
 62
     7
100
AcDbLine
 10
-29.65100503297517
 20
-283.0108751185921
 30
0.0
 11
-271.923244204406
 21
-291.4712081369469
 31
0.0
  0
ARC
  5
39F
330
422
100
AcDbEntity
  8
DATA
  6
Continuous
 62
     7
100
AcDbCircle
 10
-30.00000000000024
 20
-273.0169668484013
 30
0.0
 40
9.999999999999831
100
AcDbArc
 50
272.0000000000004
 51
0.0
  0
LINE
  5
3A0
330
422
100
AcDbEntity
  8
DATA
  6
Continuous
 62
     7
100
AcDbLine
 10
-29.65100503297517
 20
-317.0108751185921
 30
0.0
 11
-271.923244204406
 21
-325.4712081369469
 31
0.0
  0
ARC
  5
3A1
330
422
100
AcDbEntity
  8
DATA
  6
Continuous
 62
     7
100
AcDbCircle
 10
-30.00000000000024
 20
-307.0169668484012
 30
0.0
 40
9.999999999999831
100
AcDbArc
 50
272.0000000000004
 51
0.0
  0
LINE
  5
3A2
330
422
100
AcDbEntity
  8
DATA
  6
Continuous
 62
     7
100
AcDbLine
 10
-29.65100503297517
 20
-351.0108751185921
 30
0.0
 11
-271.923244204406
 21
-359.4712081369469
 31
0.0
  0
ARC
  5
3A3
330
422
100
AcDbEntity
  8
DATA
  6
Continuous
 62
     7
100
AcDbCircle
 10
-30.00000000000024
 20
-341.0169668484012
 30
0.0
 40
9.999999999999831
100
AcDbArc
 50
272.0000000000004
 51
0.0
  0
ARC
  5
3A4
330
422
100
AcDbEntity
  8
DATA
  6
Continuous
 62
     7
100
AcDbCircle
 10
-545.222143998363
 20
-249.2155098338082
 30
0.0
 40
130.0000000000009
100
AcDbArc
 50
219.9436836989018
 51
247.7313399503138
  0
ARC
  5
3A5
330
422
100
AcDbEntity
  8
DATA
  6
Continuous
 62
     7
100
AcDbCircle
 10
-545.2221439983633
 20
-249.2155098338086
 30
0.0
 40
118.0000000000003
100
AcDbArc
 50
219.7446262430803
 51
247.9939321328822
  0
LINE
  5
3A6
330
422
100
AcDbEntity
  8
DATA
  6
Continuous
 62
     7
100
AcDbLine
 10
-587.3707786666087
 20
-366.3325509732414
 30
0.0
 11
-588.6508435621671
 21
-367.970959324976
 31
0.0
  0
LINE
  5
3A7
330
422
100
AcDbEntity
  8
DATA
  6
Continuous
 62
     7
100
AcDbLine
 10
-644.9966817732716
 20
-326.3914962683919
 30
0.0
 11
-643.737119352972
 21
-324.7793298883046
 31
0.0
  0
ARC
  5
3A8
330
422
100
AcDbEntity
  8
DATA
  6
Continuous
 62
     7
100
AcDbCircle
 10
-639.7970655849386
 20
-327.8576372649326
 30
0.0
 40
4.999999999999712
100
AcDbArc
 50
39.7446262430753
 51
142.0000000000011
  0
ARC
  5
3A9
330
422
100
AcDbEntity
  8
DATA
  6
Continuous
 62
     7
100
AcDbCircle
 10
-641.0566280052381
 20
-329.46980364502
 30
0.0
 40
4.999999999999753
100
AcDbArc
 50
142.000000000002
 51
219.9436836989064
  0
ARC
  5
3AA
330
422
100
AcDbEntity
  8
DATA
  6
Continuous
 62
     7
100
AcDbCircle
 10
-591.3108324346425
 20
-363.2542435966131
 30
0.0
 40
5.000000000000267
100
AcDbArc
 50
322.0000000000008
 51
67.99393213287928
  0
ARC
  5
3AB
330
422
100
AcDbEntity
  8
DATA
  6
Continuous
 62
     7
100
AcDbCircle
 10
-592.5908973302024
 20
-364.8926519483458
 30
0.0
 40
5.000000000002705
100
AcDbArc
 50
247.7313399503404
 51
321.9999999999972
  0
TEXT
  5
3AC
330
422
100
AcDbEntity
  8
DATA
 62
     7
100
AcDbText
 10
599.9999999999999
 20
-942.0023045454376
 30
0.0
 40
24.4326171875
  1
JBL PROFESSIONAL
 41
0.7
 11
599.9999999999999
 21
-917.5696873579376
 31
0.0
100
AcDbText
 73
     3
  0
TEXT
  5
3AD
330
422
100
AcDbEntity
  8
DATA
 62
     7
100
AcDbText
 10
521.6793540331543
 20
-975.1669203318009
 30
0.0
 40
16.28841145833333
  1
天井吊下げ用同軸2-Wayフルレンジ・スピーカー
 41
0.7
 11
521.6793540331543
 21
-958.8785088734676
 31
0.0
100
AcDbText
 73
     3
  0
TEXT
  5
3AE
330
422
100
AcDbEntity
  8
DATA
 62
     7
100
AcDbText
 10
625.8714228877313
 20
-607.3236762152778
 30
0.0
 40
27.14735243055556
  1
入力選択スイッチ拡大図
 41
0.7
 72
     1
 11
748.125
 21
-593.75
 31
0.0
100
AcDbText
 73
     2
  0
LINE
  5
3AF
330
422
100
AcDbEntity
  8
DATA
  6
Continuous
 62
     7
100
AcDbLine
 10
544.9999999999999
 20
-625.0
 30
0.0
 11
951.2500000000001
 21
-625.0
 31
0.0
  0
TEXT
  5
3B0
330
422
100
AcDbEntity
  8
DATA
 62
     7
100
AcDbText
 10
-774.9999999999995
 20
-1049.450887222222
 30
0.0
 40
19.00314670138889
  1
※仕様及び外観は予告なく変更されることがあります。
 41
0.7
 11
-774.9999999999995
 21
-1030.447740520833
 31
0.0
100
AcDbText
 73
     3
  0
TEXT
  5
3B1
330
422
100
AcDbEntity
  8
DATA
 62
     7
100
AcDbText
 10
-774.9999999999995
 20
-1074.145331666667
 30
0.0
 40
19.00314670138889
  1
　また、同一商品でも若干の個体差があることがあります。ご了承ください。
 41
0.7
 11
-774.9999999999995
 21
-1055.142184965278
 31
0.0
100
AcDbText
 73
     3
  0
ENDSEC
  0
SECTION
  2
OBJECTS
  0
DICTIONARY
  5
3BF
330
0
100
AcDbDictionary
281
     1
  3
ACAD_CIP_PREVIOUS_PRODUCT_INFO
350
43B
  3
ACAD_COLOR
350
415
  3
ACAD_DETAILVIEWSTYLE
350
41C
  3
ACAD_GROUP
350
3C0
  3
ACAD_LAYOUT
350
414
  3
ACAD_MATERIAL
350
3C3
  3
ACAD_MLEADERSTYLE
350
418
  3
ACAD_MLINESTYLE
350
411
  3
ACAD_PLOTSETTINGS
350
413
  3
ACAD_PLOTSTYLENAME
350
3C1
  3
ACAD_SCALELIST
350
3F5
  3
ACAD_SECTIONVIEWSTYLE
350
41A
  3
ACAD_TABLESTYLE
350
416
  3
ACAD_VISUALSTYLE
350
3DC
  3
ACDB_RECOMPOSE_DATA
350
455
  3
AcDbVariableDictionary
350
448
  3
DWGPROPS
350
456
  0
DICTIONARY
  5
43C
330
407
100
AcDbDictionary
280
     1
281
     1
  3
ADSK_XREC_LAYER_RECONCILED
360
43D
  0
DICTIONARY
  5
43E
330
426
100
AcDbDictionary
280
     1
281
     1
  3
ADSK_XREC_LAYER_RECONCILED
360
43F
  0
DICTIONARY
  5
440
330
432
100
AcDbDictionary
280
     1
281
     1
  3
ADSK_XREC_LAYER_RECONCILED
360
441
  0
DICTIONARY
  5
442
330
433
100
AcDbDictionary
280
     1
281
     1
  3
ADSK_XREC_LAYER_RECONCILED
360
443
  0
DICTIONARY
  5
444
330
434
100
AcDbDictionary
280
     1
281
     1
  3
ADSK_XREC_LAYER_RECONCILED
360
445
  0
DICTIONARY
  5
446
330
435
100
AcDbDictionary
280
     1
281
     1
  3
ADSK_XREC_LAYER_RECONCILED
360
447
  0
XRECORD
  5
43B
102
{ACAD_REACTORS
330
3BF
102
}
330
3BF
100
AcDbXrecord
280
     1
300
ACDLT
300
2017
300
ACDLT_F_S
  0
DICTIONARY
  5
415
102
{ACAD_REACTORS
330
3BF
102
}
330
3BF
100
AcDbDictionary
281
     1
  0
DICTIONARY
  5
41C
102
{ACAD_REACTORS
330
3BF
102
}
330
3BF
100
AcDbDictionary
281
     1
  3
Imperial24
350
41D
  0
DICTIONARY
  5
3C0
102
{ACAD_REACTORS
330
3BF
102
}
330
3BF
100
AcDbDictionary
281
     1
  0
DICTIONARY
  5
414
102
{ACAD_REACTORS
330
3BF
102
}
330
3BF
100
AcDbDictionary
281
     1
  3
Model
350
425
  3
レイアウト1
350
421
  0
DICTIONARY
  5
3C3
102
{ACAD_REACTORS
330
3BF
102
}
330
3BF
100
AcDbDictionary
281
     1
  3
ByBlock
350
3CC
  3
ByLayer
350
3C4
  3
Global
350
3D4
  0
DICTIONARY
  5
418
102
{ACAD_REACTORS
330
3BF
102
}
330
3BF
100
AcDbDictionary
281
     1
  3
Standard
350
419
  0
DICTIONARY
  5
411
102
{ACAD_REACTORS
330
3BF
102
}
330
3BF
100
AcDbDictionary
281
     1
  3
Standard
350
412
  0
DICTIONARY
  5
413
102
{ACAD_REACTORS
330
3BF
102
}
330
3BF
100
AcDbDictionary
281
     1
  0
ACDBDICTIONARYWDFLT
  5
3C1
102
{ACAD_REACTORS
330
3BF
102
}
330
3BF
100
AcDbDictionary
281
     1
  3
Normal
350
3C2
100
AcDbDictionaryWithDefault
340
3C2
  0
DICTIONARY
  5
3F5
102
{ACAD_REACTORS
330
3BF
102
}
330
3BF
100
AcDbDictionary
281
     1
  3
A0
350
3F6
  3
A1
350
3F7
  3
A2
350
3F8
  3
A3
350
3F9
  3
A4
350
3FA
  3
A5
350
3FB
  3
A6
350
3FC
  3
A7
350
3FD
  3
A8
350
3FE
  3
A9
350
3FF
  3
B0
350
400
  3
B1
350
401
  3
B2
350
402
  3
B3
350
403
  3
B4
350
404
  3
B5
350
405
  3
B6
350
406
  0
DICTIONARY
  5
41A
102
{ACAD_REACTORS
330
3BF
102
}
330
3BF
100
AcDbDictionary
281
     1
  3
Imperial24
350
41B
  0
DICTIONARY
  5
416
102
{ACAD_REACTORS
330
3BF
102
}
330
3BF
100
AcDbDictionary
281
     1
  3
Standard
350
417
  0
DICTIONARY
  5
3DC
102
{ACAD_REACTORS
330
3BF
102
}
330
3BF
100
AcDbDictionary
281
     1
  3
2dWireframe
350
3E2
  3
Basic
350
3E1
  3
Brighten
350
3E8
  3
ColorChange
350
3EC
  3
Conceptual
350
3E5
  3
Dim
350
3E7
  3
EdgeColorOff
350
3F4
  3
Facepattern
350
3EB
  3
Flat
350
3DD
  3
FlatWithEdges
350
3DE
  3
Gouraud
350
3DF
  3
GouraudWithEdges
350
3E0
  3
Hidden
350
3E4
  3
JitterOff
350
3F2
  3
Linepattern
350
3EA
  3
OverhangOff
350
3F3
  3
Realistic
350
3E6
  3
Shaded
350
3F1
  3
Shaded with edges
350
3F0
  3
Shades of Gray
350
3ED
  3
Sketchy
350
3EE
  3
Thicken
350
3E9
  3
Wireframe
350
3E3
  3
X-Ray
350
3EF
  0
XRECORD
  5
455
102
{ACAD_REACTORS
330
3BF
102
}
330
3BF
100
AcDbXrecord
280
     1
 90
        1
330
417
  0
DICTIONARY
  5
448
102
{ACAD_REACTORS
330
3BF
102
}
330
3BF
100
AcDbDictionary
281
     1
  3
CANNOSCALE
350
44D
  3
CMLEADERSTYLE
350
44A
  3
CTABLESTYLE
350
449
  3
CVIEWDETAILSTYLE
350
44B
  3
CVIEWSECTIONSTYLE
350
44C
  3
DIMASSOC
350
450
  3
INDEXCTL
350
44F
  3
SORTENTS
350
44E
  3
XCLIPFRAME
350
451
  0
XRECORD
  5
456
102
{ACAD_REACTORS
330
3BF
102
}
330
3BF
100
AcDbXrecord
280
     1
  1
DWGPROPS COOKIE
  2

  3

  4

  6

  7

  8
sasaki_n
  9

300
=
301
=
302
=
303
=
304
=
305
=
306
=
307
=
308
=
309
=
 40
0.0002777777777778
 41
2457823.501203704
 42
2457823.548773148
  1

 90
        0
  0
XRECORD
  5
43D
102
{ACAD_REACTORS
330
43C
102
}
330
43C
100
AcDbXrecord
280
     1
290
     1
  0
XRECORD
  5
43F
102
{ACAD_REACTORS
330
43E
102
}
330
43E
100
AcDbXrecord
280
     1
290
     1
  0
XRECORD
  5
441
102
{ACAD_REACTORS
330
440
102
}
330
440
100
AcDbXrecord
280
     1
290
     1
  0
XRECORD
  5
443
102
{ACAD_REACTORS
330
442
102
}
330
442
100
AcDbXrecord
280
     1
290
     1
  0
XRECORD
  5
445
102
{ACAD_REACTORS
330
444
102
}
330
444
100
AcDbXrecord
280
     1
290
     1
  0
XRECORD
  5
447
102
{ACAD_REACTORS
330
446
102
}
330
446
100
AcDbXrecord
280
     1
290
     1
  0
ACDBDETAILVIEWSTYLE
  5
41D
102
{ACAD_XDICTIONARY
360
48E
102
}
102
{ACAD_REACTORS
330
41C
102
}
330
41C
100
AcDbModelDocViewStyle
 70
     0
  3
Imperial24
290
     0
100
AcDbDetailViewStyle
 70
     0
 71
     0
 90
        3
 71
     1
340
408
 40
0.24
340
0
 40
0.24
300

 40
0.36
280
     3
 71
     2
340
40F
 90
       25
 71
     3
340
408
 40
0.24
 90
        1
 40
0.75
 90
        1
300
%<\AcVar ViewType \f "%tc1">% %<\AcVar ViewDetailId>%\PSCALE %<\AcVar ViewScale \f "%sn">%
 71
     4
340
40F
 90
       25
340
40F
 90
       25
280
     0
  0
LAYOUT
  5
425
102
{ACAD_XDICTIONARY
360
492
102
}
102
{ACAD_REACTORS
330
414
102
}
330
414
100
AcDbPlotSettings
  1

  2
DocuPrint 3000-2
  4

  6

 40
0.0
 41
0.0
 42
0.0
 43
0.0
 44
0.0
 45
0.0
 46
0.0
 47
0.0
 48
0.0
 49
0.0
140
0.0
141
0.0
142
1.0
143
1.0
 70
  1712
 72
     0
 73
     0
 74
     0
  7

 75
     0
147
1.0
148
0.0
149
0.0
100
AcDbLayout
  1
Model
 70
     1
 71
     0
 10
0.0
 20
0.0
 11
12.0
 21
9.0
 12
0.0
 22
0.0
 32
0.0
 14
0.0
 24
0.0
 34
0.0
 15
0.0
 25
0.0
 35
0.0
146
0.0
 13
0.0
 23
0.0
 33
0.0
 16
1.0
 26
0.0
 36
0.0
 17
0.0
 27
1.0
 37
0.0
 76
     0
330
422
331
427
  0
LAYOUT
  5
421
102
{ACAD_XDICTIONARY
360
490
102
}
102
{ACAD_REACTORS
330
414
102
}
330
414
100
AcDbPlotSettings
  1

  2
DocuPrint 3000-2
  4

  6

 40
0.0
 41
0.0
 42
0.0
 43
0.0
 44
0.0
 45
0.0
 46
0.0
 47
0.0
 48
0.0
 49
0.0
140
0.0
141
0.0
142
1.0
143
1.0
 70
   688
 72
     0
 73
     0
 74
     5
  7

 75
    16
147
1.0
148
0.0
149
0.0
100
AcDbLayout
  1
レイアウト1
 70
     0
 71
     1
 10
0.0
 20
0.0
 11
12.0
 21
9.0
 12
0.0
 22
0.0
 32
0.0
 14
1.000000000000000E+20
 24
1.000000000000000E+20
 34
1.000000000000000E+20
 15
-1.000000000000000E+20
 25
-1.000000000000000E+20
 35
-1.000000000000000E+20
146
0.0
 13
0.0
 23
0.0
 33
0.0
 16
1.0
 26
0.0
 36
0.0
 17
0.0
 27
1.0
 37
0.0
 76
     0
330
41E
  0
MATERIAL
  5
3CC
102
{ACAD_XDICTIONARY
360
3CD
102
}
102
{ACAD_REACTORS
330
3C3
102
}
330
3C3
100
AcDbMaterial
  1
ByBlock
 72
     0
 43
0.0208333333333333
 43
0.0
 43
0.0
 43
0.0
 43
0.0
 43
0.0208333333333333
 43
0.0
 43
0.0
 43
0.0
 43
0.0
 43
1.0
 43
0.0
 43
0.0
 43
0.0
 43
0.0
 43
1.0
 77
     0
 47
0.0208333333333333
 47
0.0
 47
0.0
 47
0.0
 47
0.0
 47
0.0208333333333333
 47
0.0
 47
0.0
 47
0.0
 47
0.0
 47
1.0
 47
0.0
 47
0.0
 47
0.0
 47
0.0
 47
1.0
171
     0
 49
0.0208333333333333
 49
0.0
 49
0.0
 49
0.0
 49
0.0
 49
0.0208333333333333
 49
0.0
 49
0.0
 49
0.0
 49
0.0
 49
1.0
 49
0.0
 49
0.0
 49
0.0
 49
0.0
 49
1.0
175
     0
142
0.0208333333333333
142
0.0
142
0.0
142
0.0
142
0.0
142
0.0208333333333333
142
0.0
142
0.0
142
0.0
142
0.0
142
1.0
142
0.0
142
0.0
142
0.0
142
0.0
142
1.0
179
     0
144
0.0208333333333333
144
0.0
144
0.0
144
0.0
144
0.0
144
0.0208333333333333
144
0.0
144
0.0
144
0.0
144
0.0
144
1.0
144
0.0
144
0.0
144
0.0
144
0.0
144
1.0
147
0.0208333333333333
147
0.0
147
0.0
147
0.0
147
0.0
147
0.0208333333333333
147
0.0
147
0.0
147
0.0
147
0.0
147
1.0
147
0.0
147
0.0
147
0.0
147
0.0
147
1.0
  0
MATERIAL
  5
3C4
102
{ACAD_XDICTIONARY
360
3C5
102
}
102
{ACAD_REACTORS
330
3C3
102
}
330
3C3
100
AcDbMaterial
  1
ByLayer
 72
     0
 43
0.0208333333333333
 43
0.0
 43
0.0
 43
0.0
 43
0.0
 43
0.0208333333333333
 43
0.0
 43
0.0
 43
0.0
 43
0.0
 43
1.0
 43
0.0
 43
0.0
 43
0.0
 43
0.0
 43
1.0
 77
     0
 47
0.0208333333333333
 47
0.0
 47
0.0
 47
0.0
 47
0.0
 47
0.0208333333333333
 47
0.0
 47
0.0
 47
0.0
 47
0.0
 47
1.0
 47
0.0
 47
0.0
 47
0.0
 47
0.0
 47
1.0
171
     0
 49
0.0208333333333333
 49
0.0
 49
0.0
 49
0.0
 49
0.0
 49
0.0208333333333333
 49
0.0
 49
0.0
 49
0.0
 49
0.0
 49
1.0
 49
0.0
 49
0.0
 49
0.0
 49
0.0
 49
1.0
175
     0
142
0.0208333333333333
142
0.0
142
0.0
142
0.0
142
0.0
142
0.0208333333333333
142
0.0
142
0.0
142
0.0
142
0.0
142
1.0
142
0.0
142
0.0
142
0.0
142
0.0
142
1.0
179
     0
144
0.0208333333333333
144
0.0
144
0.0
144
0.0
144
0.0
144
0.0208333333333333
144
0.0
144
0.0
144
0.0
144
0.0
144
1.0
144
0.0
144
0.0
144
0.0
144
0.0
144
1.0
147
0.0208333333333333
147
0.0
147
0.0
147
0.0
147
0.0
147
0.0208333333333333
147
0.0
147
0.0
147
0.0
147
0.0
147
1.0
147
0.0
147
0.0
147
0.0
147
0.0
147
1.0
  0
MATERIAL
  5
3D4
102
{ACAD_XDICTIONARY
360
3D5
102
}
102
{ACAD_REACTORS
330
3C3
102
}
330
3C3
100
AcDbMaterial
  1
Global
 72
     0
 43
0.0208333333333333
 43
0.0
 43
0.0
 43
0.0
 43
0.0
 43
0.0208333333333333
 43
0.0
 43
0.0
 43
0.0
 43
0.0
 43
1.0
 43
0.0
 43
0.0
 43
0.0
 43
0.0
 43
1.0
 77
     0
 47
0.0208333333333333
 47
0.0
 47
0.0
 47
0.0
 47
0.0
 47
0.0208333333333333
 47
0.0
 47
0.0
 47
0.0
 47
0.0
 47
1.0
 47
0.0
 47
0.0
 47
0.0
 47
0.0
 47
1.0
171
     0
 49
0.0208333333333333
 49
0.0
 49
0.0
 49
0.0
 49
0.0
 49
0.0208333333333333
 49
0.0
 49
0.0
 49
0.0
 49
0.0
 49
1.0
 49
0.0
 49
0.0
 49
0.0
 49
0.0
 49
1.0
175
     0
142
0.0208333333333333
142
0.0
142
0.0
142
0.0
142
0.0
142
0.0208333333333333
142
0.0
142
0.0
142
0.0
142
0.0
142
1.0
142
0.0
142
0.0
142
0.0
142
0.0
142
1.0
179
     0
144
0.0208333333333333
144
0.0
144
0.0
144
0.0
144
0.0
144
0.0208333333333333
144
0.0
144
0.0
144
0.0
144
0.0
144
1.0
144
0.0
144
0.0
144
0.0
144
0.0
144
1.0
147
0.0208333333333333
147
0.0
147
0.0
147
0.0
147
0.0
147
0.0208333333333333
147
0.0
147
0.0
147
0.0
147
0.0
147
1.0
147
0.0
147
0.0
147
0.0
147
0.0
147
1.0
  0
MLEADERSTYLE
  5
419
102
{ACAD_REACTORS
330
418
102
}
330
418
100
AcDbMLeaderStyle
170
     2
171
     1
172
     0
 90
        2
 40
0.0
 41
0.0
173
     1
 91
-1056964608
340
40D
 92
       -2
290
     1
 42
0.09
291
     1
 43
0.36
  3
Standard
 44
0.18
300

342
408
174
     1
178
     6
175
     1
176
     0
 93
-1056964608
 45
0.18
292
     0
297
     0
 46
0.18
 94
-1056964608
 47
1.0
 49
1.0
140
1.0
293
     1
141
0.0
294
     1
177
     0
142
1.0
295
     0
296
     0
143
0.125
1001
ACAD_MLEADERVER
1070
     2
  0
MLINESTYLE
  5
412
102
{ACAD_REACTORS
330
411
102
}
330
411
100
AcDbMlineStyle
  2
STANDARD
 70
     0
  3

 62
   256
 51
90.0
 52
90.0
 71
     2
 49
0.5
 62
   256
  6
BYLAYER
 49
-0.5
 62
   256
  6
BYLAYER
  0
ACDBPLACEHOLDER
  5
3C2
102
{ACAD_REACTORS
330
3C1
102
}
330
3C1
  0
SCALE
  5
3F6
102
{ACAD_REACTORS
330
3F5
102
}
330
3F5
100
AcDbScale
 70
     0
300
1:1
140
1.0
141
1.0
290
     1
  0
SCALE
  5
3F7
102
{ACAD_REACTORS
330
3F5
102
}
330
3F5
100
AcDbScale
 70
     0
300
1/128" = 1'-0"
140
0.0078125
141
12.0
290
     0
  0
SCALE
  5
3F8
102
{ACAD_REACTORS
330
3F5
102
}
330
3F5
100
AcDbScale
 70
     0
300
1/64" = 1'-0"
140
0.015625
141
12.0
290
     0
  0
SCALE
  5
3F9
102
{ACAD_REACTORS
330
3F5
102
}
330
3F5
100
AcDbScale
 70
     0
300
1/32" = 1'-0"
140
0.03125
141
12.0
290
     0
  0
SCALE
  5
3FA
102
{ACAD_REACTORS
330
3F5
102
}
330
3F5
100
AcDbScale
 70
     0
300
1/16" = 1'-0"
140
0.0625
141
12.0
290
     0
  0
SCALE
  5
3FB
102
{ACAD_REACTORS
330
3F5
102
}
330
3F5
100
AcDbScale
 70
     0
300
3/32" = 1'-0"
140
0.09375
141
12.0
290
     0
  0
SCALE
  5
3FC
102
{ACAD_REACTORS
330
3F5
102
}
330
3F5
100
AcDbScale
 70
     0
300
1/8" = 1'-0"
140
0.125
141
12.0
290
     0
  0
SCALE
  5
3FD
102
{ACAD_REACTORS
330
3F5
102
}
330
3F5
100
AcDbScale
 70
     0
300
3/16" = 1'-0"
140
0.1875
141
12.0
290
     0
  0
SCALE
  5
3FE
102
{ACAD_REACTORS
330
3F5
102
}
330
3F5
100
AcDbScale
 70
     0
300
1/4" = 1'-0"
140
0.25
141
12.0
290
     0
  0
SCALE
  5
3FF
102
{ACAD_REACTORS
330
3F5
102
}
330
3F5
100
AcDbScale
 70
     0
300
3/8" = 1'-0"
140
0.375
141
12.0
290
     0
  0
SCALE
  5
400
102
{ACAD_REACTORS
330
3F5
102
}
330
3F5
100
AcDbScale
 70
     0
300
1/2" = 1'-0"
140
0.5
141
12.0
290
     0
  0
SCALE
  5
401
102
{ACAD_REACTORS
330
3F5
102
}
330
3F5
100
AcDbScale
 70
     0
300
3/4" = 1'-0"
140
0.75
141
12.0
290
     0
  0
SCALE
  5
402
102
{ACAD_REACTORS
330
3F5
102
}
330
3F5
100
AcDbScale
 70
     0
300
1" = 1'-0"
140
1.0
141
12.0
290
     0
  0
SCALE
  5
403
102
{ACAD_REACTORS
330
3F5
102
}
330
3F5
100
AcDbScale
 70
     0
300
1-1/2" = 1'-0"
140
1.5
141
12.0
290
     0
  0
SCALE
  5
404
102
{ACAD_REACTORS
330
3F5
102
}
330
3F5
100
AcDbScale
 70
     0
300
3" = 1'-0"
140
3.0
141
12.0
290
     0
  0
SCALE
  5
405
102
{ACAD_REACTORS
330
3F5
102
}
330
3F5
100
AcDbScale
 70
     0
300
6" = 1'-0"
140
6.0
141
12.0
290
     0
  0
SCALE
  5
406
102
{ACAD_REACTORS
330
3F5
102
}
330
3F5
100
AcDbScale
 70
     0
300
1'-0" = 1'-0"
140
12.0
141
12.0
290
     0
  0
ACDBSECTIONVIEWSTYLE
  5
41B
102
{ACAD_XDICTIONARY
360
48C
102
}
102
{ACAD_REACTORS
330
41A
102
}
330
41A
100
AcDbModelDocViewStyle
 70
     0
  3
Imperial24
290
     0
100
AcDbSectionViewStyle
 70
     0
 71
     0
 90
       78
 71
     1
340
408
 40
0.24
340
0
340
0
 40
0.24
300
I, O, Q, S, X, Z
 40
0.48
 90
        3
 40
0.18
 90
        1
 71
     2
340
40F
 90
       25
340
40F
 90
       50
 40
0.24
 40
0.0
 40
0.24
 71
     3
340
408
 40
0.24
 90
        1
 40
0.75
 90
        1
300
%<\AcVar ViewType \f "%tc1">% %<\AcVar ViewSectionStartId>%-%<\AcVar ViewSectionEndId>%\PSCALE %<\AcVar ViewScale \f "%sn">%
 71
     4
300
ANSI31
 40
1.0
 90
        0
290
     0
290
     0
 90
        6
 40
0.0
 40
1.570796326794896
 40
0.2617993877991494
 40
1.308996938995747
 40
-0.2617993877991494
 40
1.832595714594046
  0
TABLESTYLE
  5
417
102
{ACAD_XDICTIONARY
360
453
102
}
102
{ACAD_REACTORS
330
416
102
}
330
416
100
AcDbTableStyle
  3
Standard
 70
     0
 71
     0
 40
0.06
 41
0.06
280
     0
281
     0
  7
STANDARD
140
0.18
170
     2
 62
     0
 63
     7
283
     0
274
    -2
284
     1
 64
     0
275
    -2
285
     1
 65
     0
276
    -2
286
     1
 66
     0
277
    -2
287
     1
 67
     0
278
    -2
288
     1
 68
     0
279
    -2
289
     1
 69
     0
  7
STANDARD
140
0.25
170
     5
 62
     0
 63
     7
283
     0
274
    -2
284
     1
 64
     0
275
    -2
285
     1
 65
     0
276
    -2
286
     1
 66
     0
277
    -2
287
     1
 67
     0
278
    -2
288
     1
 68
     0
279
    -2
289
     1
 69
     0
  7
STANDARD
140
0.18
170
     5
 62
     0
 63
     7
283
     0
274
    -2
284
     1
 64
     0
275
    -2
285
     1
 65
     0
276
    -2
286
     1
 66
     0
277
    -2
287
     1
 67
     0
278
    -2
288
     1
 68
     0
279
    -2
289
     1
 69
     0
  0
VISUALSTYLE
  5
3E2
102
{ACAD_XDICTIONARY
360
464
102
}
102
{ACAD_REACTORS
330
3DC
102
}
330
3DC
100
AcDbVisualStyle
  2
2dWireframe
 70
     4
 71
     0
 72
     2
 73
     0
 90
        0
 40
-0.6
 41
-30.0
 62
     5
 63
     7
 74
     1
 91
        4
 64
     7
 65
   257
 75
     1
175
     1
 42
1.0
 92
        0
 66
   257
 43
1.0
 76
     1
 77
     6
 78
     2
 67
     7
 79
     5
170
     0
171
     0
290
     0
174
     0
 93
        1
 44
0.0
173
     0
291
     0
 45
0.0
1001
ACAD
1000
AcDbSavedByObjectVersion
1070
     0
  0
VISUALSTYLE
  5
3E1
102
{ACAD_XDICTIONARY
360
462
102
}
102
{ACAD_REACTORS
330
3DC
102
}
330
3DC
100
AcDbVisualStyle
  2
Basic
 70
     7
 71
     1
 72
     0
 73
     1
 90
        0
 40
-0.6
 41
-30.0
 62
     5
 63
     7
 74
     0
 91
        4
 64
     7
 65
   257
 75
     1
175
     1
 42
1.0
 92
        8
 66
     7
 43
1.0
 76
     1
 77
     6
 78
     2
 67
     7
 79
     5
170
     0
171
     0
290
     0
174
     0
 93
        1
 44
0.0
173
     0
291
     1
 45
0.0
1001
ACAD
1000
AcDbSavedByObjectVersion
1070
     0
  0
VISUALSTYLE
  5
3E8
102
{ACAD_XDICTIONARY
360
470
102
}
102
{ACAD_REACTORS
330
3DC
102
}
330
3DC
100
AcDbVisualStyle
  2
Brighten
 70
    12
 71
     2
 72
     2
 73
     0
 90
        0
 40
-0.6
 41
-30.0
 62
     5
 63
     7
 74
     1
 91
        4
 64
     7
 65
   257
 75
     1
175
     1
 42
1.0
 92
        8
 66
     7
 43
1.0
 76
     1
 77
     6
 78
     2
 67
     7
 79
     5
170
     0
171
     0
290
     0
174
     0
 93
        1
 44
50.0
173
     0
291
     1
 45
0.0
1001
ACAD
1000
AcDbSavedByObjectVersion
1070
     0
  0
VISUALSTYLE
  5
3EC
102
{ACAD_XDICTIONARY
360
478
102
}
102
{ACAD_REACTORS
330
3DC
102
}
330
3DC
100
AcDbVisualStyle
  2
ColorChange
 70
    16
 71
     2
 72
     2
 73
     3
 90
        0
 40
-0.6
 41
-30.0
 62
     5
 63
     8
 74
     1
 91
        4
 64
     7
 65
   257
 75
     1
175
     1
 42
1.0
 92
        8
 66
     8
 43
1.0
 76
     1
 77
     6
 78
     2
 67
     7
 79
     5
170
     0
171
     0
290
     0
174
     0
 93
        1
 44
0.0
173
     0
291
     1
 45
0.0
1001
ACAD
1000
AcDbSavedByObjectVersion
1070
     0
  0
VISUALSTYLE
  5
3E5
102
{ACAD_XDICTIONARY
360
46A
102
}
102
{ACAD_REACTORS
330
3DC
102
}
330
3DC
100
AcDbVisualStyle
  2
Conceptual
 70
     9
 71
     3
 72
     2
 73
     0
 90
        0
 40
-0.6
 41
-30.0
 62
     5
 63
     7
 74
     2
 91
        2
 64
     7
 65
   257
 75
     1
175
     1
 42
179.0
 92
        8
 66
     7
 43
1.0
 76
     1
 77
     6
 78
     2
 67
     7
 79
     3
170
     0
171
     0
290
     0
174
     0
 93
        1
 44
0.0
173
     0
291
     0
 45
0.0
1001
ACAD
1000
AcDbSavedByObjectVersion
1070
     0
  0
VISUALSTYLE
  5
3E7
102
{ACAD_XDICTIONARY
360
46E
102
}
102
{ACAD_REACTORS
330
3DC
102
}
330
3DC
100
AcDbVisualStyle
  2
Dim
 70
    11
 71
     2
 72
     2
 73
     0
 90
        0
 40
-0.6
 41
-30.0
 62
     5
 63
     7
 74
     1
 91
        4
 64
     7
 65
   257
 75
     1
175
     1
 42
1.0
 92
        8
 66
     7
 43
1.0
 76
     1
 77
     6
 78
     2
 67
     7
 79
     5
170
     0
171
     0
290
     0
174
     0
 93
        1
 44
-50.0
173
     0
291
     1
 45
0.0
1001
ACAD
1000
AcDbSavedByObjectVersion
1070
     0
  0
VISUALSTYLE
  5
3F4
102
{ACAD_XDICTIONARY
360
488
102
}
102
{ACAD_REACTORS
330
3DC
102
}
330
3DC
100
AcDbVisualStyle
  2
EdgeColorOff
 70
    22
 71
     2
 72
     2
 73
     0
 90
        0
 40
-0.6
 41
-30.0
 62
     5
 63
     7
 74
     1
 91
        4
 64
     7
 65
   257
 75
     1
175
     1
 42
1.0
 92
        8
 66
     7
 43
1.0
 76
     1
 77
     6
 78
     2
 67
     7
 79
     5
170
     0
171
     0
290
     0
174
     0
 93
        1
 44
0.0
173
     0
291
     1
 45
0.0
1001
ACAD
1000
AcDbSavedByObjectVersion
1070
     0
  0
VISUALSTYLE
  5
3EB
102
{ACAD_XDICTIONARY
360
476
102
}
102
{ACAD_REACTORS
330
3DC
102
}
330
3DC
100
AcDbVisualStyle
  2
Facepattern
 70
    15
 71
     2
 72
     2
 73
     0
 90
        0
 40
-0.6
 41
-30.0
 62
     5
 63
     7
 74
     1
 91
        4
 64
     7
 65
   257
 75
     1
175
     1
 42
1.0
 92
        8
 66
     7
 43
1.0
 76
     1
 77
     6
 78
     2
 67
     7
 79
     5
170
     0
171
     0
290
     0
174
     0
 93
        1
 44
0.0
173
     0
291
     1
 45
0.0
1001
ACAD
1000
AcDbSavedByObjectVersion
1070
     0
  0
VISUALSTYLE
  5
3DD
102
{ACAD_XDICTIONARY
360
45A
102
}
102
{ACAD_REACTORS
330
3DC
102
}
330
3DC
100
AcDbVisualStyle
  2
Flat
 70
     0
 71
     2
 72
     1
 73
     1
 90
        2
 40
-0.6
 41
30.0
 62
     5
 63
     7
 74
     0
 91
        0
 64
     7
 65
   257
 75
     1
175
     1
 42
1.0
 92
        8
 66
     7
 43
1.0
 76
     1
 77
     6
 78
     2
 67
     7
 79
     5
170
     0
171
     0
290
     0
174
     0
 93
       13
 44
0.0
173
     0
291
     1
 45
0.0
1001
ACAD
1000
AcDbSavedByObjectVersion
1070
     0
  0
VISUALSTYLE
  5
3DE
102
{ACAD_XDICTIONARY
360
45C
102
}
102
{ACAD_REACTORS
330
3DC
102
}
330
3DC
100
AcDbVisualStyle
  2
FlatWithEdges
 70
     1
 71
     2
 72
     1
 73
     1
 90
        2
 40
-0.6
 41
30.0
 62
     5
 63
     7
 74
     1
 91
        0
 64
     7
 65
   257
 75
     1
175
     1
 42
1.0
 92
        0
 66
   257
 43
1.0
 76
     1
 77
     6
 78
     2
 67
     7
 79
     5
170
     0
171
     0
290
     0
174
     0
 93
       13
 44
0.0
173
     0
291
     1
 45
0.0
1001
ACAD
1000
AcDbSavedByObjectVersion
1070
     0
  0
VISUALSTYLE
  5
3DF
102
{ACAD_XDICTIONARY
360
45E
102
}
102
{ACAD_REACTORS
330
3DC
102
}
330
3DC
100
AcDbVisualStyle
  2
Gouraud
 70
     2
 71
     2
 72
     2
 73
     1
 90
        2
 40
-0.6
 41
30.0
 62
     5
 63
     7
 74
     0
 91
        0
 64
     7
 65
   257
 75
     1
175
     1
 42
1.0
 92
        0
 66
     7
 43
1.0
 76
     1
 77
     6
 78
     2
 67
     7
 79
     5
170
     0
171
     0
290
     0
174
     0
 93
       13
 44
0.0
173
     0
291
     1
 45
0.0
1001
ACAD
1000
AcDbSavedByObjectVersion
1070
     0
  0
VISUALSTYLE
  5
3E0
102
{ACAD_XDICTIONARY
360
460
102
}
102
{ACAD_REACTORS
330
3DC
102
}
330
3DC
100
AcDbVisualStyle
  2
GouraudWithEdges
 70
     3
 71
     2
 72
     2
 73
     1
 90
        2
 40
-0.6
 41
30.0
 62
     5
 63
     7
 74
     1
 91
        0
 64
     7
 65
   257
 75
     1
175
     1
 42
1.0
 92
        0
 66
   257
 43
1.0
 76
     1
 77
     6
 78
     2
 67
     7
 79
     5
170
     0
171
     0
290
     0
174
     0
 93
       13
 44
0.0
173
     0
291
     1
 45
0.0
1001
ACAD
1000
AcDbSavedByObjectVersion
1070
     0
  0
VISUALSTYLE
  5
3E4
102
{ACAD_XDICTIONARY
360
468
102
}
102
{ACAD_REACTORS
330
3DC
102
}
330
3DC
100
AcDbVisualStyle
  2
Hidden
 70
     6
 71
     1
 72
     2
 73
     2
 90
        0
 40
-0.6
 41
-30.0
 62
     5
 63
     7
 74
     2
 91
        2
 64
     7
 65
   257
 75
     2
175
     1
 42
40.0
 92
        0
 66
   257
 43
1.0
 76
     1
 77
     6
 78
     2
 67
     7
 79
     3
170
     0
171
     0
290
     0
174
     0
 93
        1
 44
0.0
173
     0
291
     0
 45
0.0
1001
ACAD
1000
AcDbSavedByObjectVersion
1070
     0
  0
VISUALSTYLE
  5
3F2
102
{ACAD_XDICTIONARY
360
484
102
}
102
{ACAD_REACTORS
330
3DC
102
}
330
3DC
100
AcDbVisualStyle
  2
JitterOff
 70
    20
 71
     2
 72
     2
 73
     0
 90
        0
 40
-0.6
 41
-30.0
 62
     5
 63
     7
 74
     1
 91
        4
 64
     7
 65
   257
 75
     1
175
     1
 42
1.0
 92
       10
 66
     7
 43
1.0
 76
     1
 77
     6
 78
     2
 67
     7
 79
     5
170
     0
171
     0
290
     0
174
     0
 93
        1
 44
0.0
173
     0
291
     1
 45
0.0
1001
ACAD
1000
AcDbSavedByObjectVersion
1070
     0
  0
VISUALSTYLE
  5
3EA
102
{ACAD_XDICTIONARY
360
474
102
}
102
{ACAD_REACTORS
330
3DC
102
}
330
3DC
100
AcDbVisualStyle
  2
Linepattern
 70
    14
 71
     2
 72
     2
 73
     0
 90
        0
 40
-0.6
 41
-30.0
 62
     5
 63
     7
 74
     1
 91
        4
 64
     7
 65
   257
 75
     7
175
     7
 42
1.0
 92
        8
 66
     7
 43
1.0
 76
     1
 77
     6
 78
     2
 67
     7
 79
     5
170
     0
171
     0
290
     0
174
     0
 93
        1
 44
0.0
173
     0
291
     1
 45
0.0
1001
ACAD
1000
AcDbSavedByObjectVersion
1070
     0
  0
VISUALSTYLE
  5
3F3
102
{ACAD_XDICTIONARY
360
486
102
}
102
{ACAD_REACTORS
330
3DC
102
}
330
3DC
100
AcDbVisualStyle
  2
OverhangOff
 70
    21
 71
     2
 72
     2
 73
     0
 90
        0
 40
-0.6
 41
-30.0
 62
     5
 63
     7
 74
     1
 91
        4
 64
     7
 65
   257
 75
     1
175
     1
 42
1.0
 92
        9
 66
     7
 43
1.0
 76
     1
 77
     6
 78
     2
 67
     7
 79
     5
170
     0
171
     0
290
     0
174
     0
 93
        1
 44
0.0
173
     0
291
     1
 45
0.0
1001
ACAD
1000
AcDbSavedByObjectVersion
1070
     0
  0
VISUALSTYLE
  5
3E6
102
{ACAD_XDICTIONARY
360
46C
102
}
102
{ACAD_REACTORS
330
3DC
102
}
330
3DC
100
AcDbVisualStyle
  2
Realistic
 70
     8
 71
     2
 72
     3
 73
     0
 90
        2
 40
-0.6
 41
30.0
 62
     5
 63
     7
 74
     0
 91
        0
 64
     7
 65
   257
 75
     1
175
     1
 42
1.0
 92
        8
 66
   257
 43
1.0
 76
     1
 77
     6
 78
     2
 67
     7
 79
     3
170
     0
171
     0
290
     0
174
     0
 93
       13
 44
0.0
173
     0
291
     0
 45
0.0
1001
ACAD
1000
AcDbSavedByObjectVersion
1070
     0
  0
VISUALSTYLE
  5
3F1
102
{ACAD_XDICTIONARY
360
482
102
}
102
{ACAD_REACTORS
330
3DC
102
}
330
3DC
100
AcDbVisualStyle
  2
Shaded
 70
    27
 71
     2
 72
     2
 73
     1
 90
        2
 40
-0.6
 41
30.0
 62
     5
 63
     7
 74
     0
 91
        4
 64
     7
 65
   257
 75
     1
175
     1
 42
1.0
 92
        8
 66
   257
 43
1.0
 76
     1
 77
     6
 78
     2
 67
     8
 79
     3
170
     0
171
     0
290
     0
174
     0
 93
        5
 44
0.0
173
     0
291
     0
 45
0.0
1001
ACAD
1000
AcDbSavedByObjectVersion
1070
     0
  0
VISUALSTYLE
  5
3F0
102
{ACAD_XDICTIONARY
360
480
102
}
102
{ACAD_REACTORS
330
3DC
102
}
330
3DC
100
AcDbVisualStyle
  2
Shaded with edges
 70
    26
 71
     2
 72
     2
 73
     1
 90
        2
 40
-0.6
 41
30.0
 62
     5
 63
     7
 74
     1
 91
        2
 64
     7
 65
   257
 75
     2
175
     1
 42
1.0
 92
        8
 66
   257
 43
1.0
 76
     1
 77
     6
 78
     2
 67
     7
 79
     3
170
     0
171
     0
290
     0
174
     0
 93
        5
 44
0.0
173
     0
291
     0
 45
0.0
1001
ACAD
1000
AcDbSavedByObjectVersion
1070
     0
  0
VISUALSTYLE
  5
3ED
102
{ACAD_XDICTIONARY
360
47A
102
}
102
{ACAD_REACTORS
330
3DC
102
}
330
3DC
100
AcDbVisualStyle
  2
Shades of Gray
 70
    23
 71
     2
 72
     2
 73
     3
 90
        0
 40
-0.6
 41
-30.0
 62
     5
 63
     7
 74
     2
 91
        2
 64
     7
 65
     7
 75
     1
175
     1
 42
40.0
 92
        8
 66
     7
 43
1.0
 76
     1
 77
     6
 78
     2
 67
     7
 79
     3
170
     0
171
     0
290
     0
174
     0
 93
        1
 44
0.0
173
     0
291
     0
 45
0.0
1001
ACAD
1000
AcDbSavedByObjectVersion
1070
     0
  0
VISUALSTYLE
  5
3EE
102
{ACAD_XDICTIONARY
360
47C
102
}
102
{ACAD_REACTORS
330
3DC
102
}
330
3DC
100
AcDbVisualStyle
  2
Sketchy
 70
    24
 71
     1
 72
     2
 73
     2
 90
        0
 40
-0.6
 41
-30.0
 62
     5
 63
     7
 74
     2
 91
        2
 64
     7
 65
     7
 75
     1
175
     1
 42
40.0
 92
       11
 66
     7
 43
1.0
 76
     1
 77
     6
 78
     2
 67
     7
 79
     6
170
     0
171
     0
290
     0
174
     0
 93
        1
 44
0.0
173
     0
291
     0
 45
0.0
1001
ACAD
1000
AcDbSavedByObjectVersion
1070
     0
  0
VISUALSTYLE
  5
3E9
102
{ACAD_XDICTIONARY
360
472
102
}
102
{ACAD_REACTORS
330
3DC
102
}
330
3DC
100
AcDbVisualStyle
  2
Thicken
 70
    13
 71
     2
 72
     2
 73
     0
 90
        0
 40
-0.6
 41
-30.0
 62
     5
 63
     7
 74
     1
 91
        4
 64
     7
 65
   257
 75
     1
175
     1
 42
1.0
 92
       12
 66
     7
 43
1.0
 76
     1
 77
     6
 78
     2
 67
     7
 79
     5
170
     0
171
     0
290
     0
174
     0
 93
        1
 44
0.0
173
     0
291
     1
 45
0.0
1001
ACAD
1000
AcDbSavedByObjectVersion
1070
     0
  0
VISUALSTYLE
  5
3E3
102
{ACAD_XDICTIONARY
360
466
102
}
102
{ACAD_REACTORS
330
3DC
102
}
330
3DC
100
AcDbVisualStyle
  2
Wireframe
 70
     5
 71
     0
 72
     2
 73
     0
 90
        0
 40
-0.6
 41
-30.0
 62
     5
 63
     7
 74
     1
 91
        4
 64
     7
 65
   257
 75
     1
175
     1
 42
1.0
 92
        0
 66
   257
 43
1.0
 76
     1
 77
     6
 78
     2
 67
     7
 79
     3
170
     0
171
     0
290
     0
174
     0
 93
        1
 44
0.0
173
     0
291
     0
 45
0.0
1001
ACAD
1000
AcDbSavedByObjectVersion
1070
     0
  0
VISUALSTYLE
  5
3EF
102
{ACAD_XDICTIONARY
360
47E
102
}
102
{ACAD_REACTORS
330
3DC
102
}
330
3DC
100
AcDbVisualStyle
  2
X-Ray
 70
    25
 71
     2
 72
     2
 73
     1
 90
        1
 40
0.5
 41
-30.0
 62
     5
 63
     7
 74
     1
 91
        0
 64
     7
 65
   257
 75
     1
175
     1
 42
1.0
 92
        8
 66
     7
 43
1.0
 76
     1
 77
     6
 78
     2
 67
     7
 79
     3
170
     0
171
     0
290
     0
174
     0
 93
       13
 44
0.0
173
     0
291
     0
 45
0.0
1001
ACAD
1000
AcDbSavedByObjectVersion
1070
     0
  0
DICTIONARYVAR
  5
44D
102
{ACAD_REACTORS
330
448
102
}
330
448
100
DictionaryVariables
280
     0
  1
1:1
  0
DICTIONARYVAR
  5
44A
102
{ACAD_REACTORS
330
448
102
}
330
448
100
DictionaryVariables
280
     0
  1
STANDARD
  0
DICTIONARYVAR
  5
449
102
{ACAD_REACTORS
330
448
102
}
330
448
100
DictionaryVariables
280
     0
  1
STANDARD
  0
DICTIONARYVAR
  5
44B
102
{ACAD_REACTORS
330
448
102
}
330
448
100
DictionaryVariables
280
     0
  1
Imperial24
  0
DICTIONARYVAR
  5
44C
102
{ACAD_REACTORS
330
448
102
}
330
448
100
DictionaryVariables
280
     0
  1
Imperial24
  0
DICTIONARYVAR
  5
450
102
{ACAD_REACTORS
330
448
102
}
330
448
100
DictionaryVariables
280
     0
  1
1
  0
DICTIONARYVAR
  5
44F
102
{ACAD_REACTORS
330
448
102
}
330
448
100
DictionaryVariables
280
     0
  1
0
  0
DICTIONARYVAR
  5
44E
102
{ACAD_REACTORS
330
448
102
}
330
448
100
DictionaryVariables
280
     0
  1
127
  0
DICTIONARYVAR
  5
451
102
{ACAD_REACTORS
330
448
102
}
330
448
100
DictionaryVariables
280
     0
  1
2
  0
DICTIONARY
  5
48E
330
41D
100
AcDbDictionary
280
     1
281
     1
  3
ACAD_XREC_ROUNDTRIP
360
48F
  0
DICTIONARY
  5
492
330
425
100
AcDbDictionary
280
     1
281
     1
  3
ACAD_XREC_ROUNDTRIP
360
493
  0
DICTIONARY
  5
490
330
421
100
AcDbDictionary
280
     1
281
     1
  3
ACAD_XREC_ROUNDTRIP
360
491
  0
DICTIONARY
  5
3CD
330
3CC
100
AcDbDictionary
280
     1
281
     1
  3
ACAD_XREC_ROUNDTRIP
360
458
  3
BUMPTILE
360
3CF
  3
DIFFUSETILE
360
3CE
  3
OPACITYTILE
360
3D2
  3
REFLECTIONTILE
360
3D1
  3
REFRACTIONTILE
360
3D3
  3
SPECULARTILE
360
3D0
  0
DICTIONARY
  5
3C5
330
3C4
100
AcDbDictionary
280
     1
281
     1
  3
ACAD_XREC_ROUNDTRIP
360
457
  3
BUMPTILE
360
3C7
  3
DIFFUSETILE
360
3C6
  3
OPACITYTILE
360
3CA
  3
REFLECTIONTILE
360
3C9
  3
REFRACTIONTILE
360
3CB
  3
SPECULARTILE
360
3C8
  0
DICTIONARY
  5
3D5
330
3D4
100
AcDbDictionary
280
     1
281
     1
  3
ACAD_XREC_ROUNDTRIP
360
459
  3
BUMPTILE
360
3D7
  3
DIFFUSETILE
360
3D6
  3
OPACITYTILE
360
3DA
  3
REFLECTIONTILE
360
3D9
  3
REFRACTIONTILE
360
3DB
  3
SPECULARTILE
360
3D8
  0
DICTIONARY
  5
48C
330
41B
100
AcDbDictionary
280
     1
281
     1
  3
ACAD_XREC_ROUNDTRIP
360
48D
  0
DICTIONARY
  5
453
330
417
100
AcDbDictionary
280
     1
281
     1
  3
ACAD_ROUNDTRIP_2008_TABLESTYLE_CELLSTYLEMAP
360
454
  3
ACAD_XREC_ROUNDTRIP
360
48A
  0
DICTIONARY
  5
464
330
3E2
100
AcDbDictionary
280
     1
281
     1
  3
ACAD_XREC_ROUNDTRIP
360
465
  0
DICTIONARY
  5
462
330
3E1
100
AcDbDictionary
280
     1
281
     1
  3
ACAD_XREC_ROUNDTRIP
360
463
  0
DICTIONARY
  5
470
330
3E8
100
AcDbDictionary
280
     1
281
     1
  3
ACAD_XREC_ROUNDTRIP
360
471
  0
DICTIONARY
  5
478
330
3EC
100
AcDbDictionary
280
     1
281
     1
  3
ACAD_XREC_ROUNDTRIP
360
479
  0
DICTIONARY
  5
46A
330
3E5
100
AcDbDictionary
280
     1
281
     1
  3
ACAD_XREC_ROUNDTRIP
360
46B
  0
DICTIONARY
  5
46E
330
3E7
100
AcDbDictionary
280
     1
281
     1
  3
ACAD_XREC_ROUNDTRIP
360
46F
  0
DICTIONARY
  5
488
330
3F4
100
AcDbDictionary
280
     1
281
     1
  3
ACAD_XREC_ROUNDTRIP
360
489
  0
DICTIONARY
  5
476
330
3EB
100
AcDbDictionary
280
     1
281
     1
  3
ACAD_XREC_ROUNDTRIP
360
477
  0
DICTIONARY
  5
45A
330
3DD
100
AcDbDictionary
280
     1
281
     1
  3
ACAD_XREC_ROUNDTRIP
360
45B
  0
DICTIONARY
  5
45C
330
3DE
100
AcDbDictionary
280
     1
281
     1
  3
ACAD_XREC_ROUNDTRIP
360
45D
  0
DICTIONARY
  5
45E
330
3DF
100
AcDbDictionary
280
     1
281
     1
  3
ACAD_XREC_ROUNDTRIP
360
45F
  0
DICTIONARY
  5
460
330
3E0
100
AcDbDictionary
280
     1
281
     1
  3
ACAD_XREC_ROUNDTRIP
360
461
  0
DICTIONARY
  5
468
330
3E4
100
AcDbDictionary
280
     1
281
     1
  3
ACAD_XREC_ROUNDTRIP
360
469
  0
DICTIONARY
  5
484
330
3F2
100
AcDbDictionary
280
     1
281
     1
  3
ACAD_XREC_ROUNDTRIP
360
485
  0
DICTIONARY
  5
474
330
3EA
100
AcDbDictionary
280
     1
281
     1
  3
ACAD_XREC_ROUNDTRIP
360
475
  0
DICTIONARY
  5
486
330
3F3
100
AcDbDictionary
280
     1
281
     1
  3
ACAD_XREC_ROUNDTRIP
360
487
  0
DICTIONARY
  5
46C
330
3E6
100
AcDbDictionary
280
     1
281
     1
  3
ACAD_XREC_ROUNDTRIP
360
46D
  0
DICTIONARY
  5
482
330
3F1
100
AcDbDictionary
280
     1
281
     1
  3
ACAD_XREC_ROUNDTRIP
360
483
  0
DICTIONARY
  5
480
330
3F0
100
AcDbDictionary
280
     1
281
     1
  3
ACAD_XREC_ROUNDTRIP
360
481
  0
DICTIONARY
  5
47A
330
3ED
100
AcDbDictionary
280
     1
281
     1
  3
ACAD_XREC_ROUNDTRIP
360
47B
  0
DICTIONARY
  5
47C
330
3EE
100
AcDbDictionary
280
     1
281
     1
  3
ACAD_XREC_ROUNDTRIP
360
47D
  0
DICTIONARY
  5
472
330
3E9
100
AcDbDictionary
280
     1
281
     1
  3
ACAD_XREC_ROUNDTRIP
360
473
  0
DICTIONARY
  5
466
330
3E3
100
AcDbDictionary
280
     1
281
     1
  3
ACAD_XREC_ROUNDTRIP
360
467
  0
DICTIONARY
  5
47E
330
3EF
100
AcDbDictionary
280
     1
281
     1
  3
ACAD_XREC_ROUNDTRIP
360
47F
  0
XRECORD
  5
48F
102
{ACAD_REACTORS
330
48E
102
}
330
48E
100
AcDbXrecord
280
     1
102
DISPLAYNAME
  1
Imperial24
102
FLAGS
 90
        0
  0
XRECORD
  5
493
102
{ACAD_REACTORS
330
492
102
}
330
492
100
AcDbXrecord
280
     1
102
SHADEPLOT
 70
     0
102
SHADEPLOTRESLEVEL
 70
     2
102
SHADEPLOTCUSTOMDPI
 70
   300
  0
XRECORD
  5
491
102
{ACAD_REACTORS
330
490
102
}
330
490
100
AcDbXrecord
280
     1
102
SHADEPLOT
 70
     0
102
SHADEPLOTRESLEVEL
 70
     2
102
SHADEPLOTCUSTOMDPI
 70
   300
  0
XRECORD
  5
458
102
{ACAD_REACTORS
330
3CD
102
}
330
3CD
100
AcDbXrecord
280
     1
102
MATERIAL
148
0.0
149
0.0
149
0.0
 93
        0
 94
      127
282
     0
 72
     0
 77
     0
171
     0
175
     0
179
     0
273
     0
  0
XRECORD
  5
3CF
102
{ACAD_REACTORS
330
3CD
102
}
330
3CD
100
AcDbXrecord
280
     1
270
     1
271
     1
  0
XRECORD
  5
3CE
102
{ACAD_REACTORS
330
3CD
102
}
330
3CD
100
AcDbXrecord
280
     1
270
     1
271
     1
  0
XRECORD
  5
3D2
102
{ACAD_REACTORS
330
3CD
102
}
330
3CD
100
AcDbXrecord
280
     1
270
     1
271
     1
  0
XRECORD
  5
3D1
102
{ACAD_REACTORS
330
3CD
102
}
330
3CD
100
AcDbXrecord
280
     1
270
     1
271
     1
  0
XRECORD
  5
3D3
102
{ACAD_REACTORS
330
3CD
102
}
330
3CD
100
AcDbXrecord
280
     1
270
     1
271
     1
  0
XRECORD
  5
3D0
102
{ACAD_REACTORS
330
3CD
102
}
330
3CD
100
AcDbXrecord
280
     1
270
     1
271
     1
  0
XRECORD
  5
457
102
{ACAD_REACTORS
330
3C5
102
}
330
3C5
100
AcDbXrecord
280
     1
102
MATERIAL
148
0.0
149
0.0
149
0.0
 93
        0
 94
      127
282
     0
 72
     0
 77
     0
171
     0
175
     0
179
     0
273
     0
  0
XRECORD
  5
3C7
102
{ACAD_REACTORS
330
3C5
102
}
330
3C5
100
AcDbXrecord
280
     1
270
     1
271
     1
  0
XRECORD
  5
3C6
102
{ACAD_REACTORS
330
3C5
102
}
330
3C5
100
AcDbXrecord
280
     1
270
     1
271
     1
  0
XRECORD
  5
3CA
102
{ACAD_REACTORS
330
3C5
102
}
330
3C5
100
AcDbXrecord
280
     1
270
     1
271
     1
  0
XRECORD
  5
3C9
102
{ACAD_REACTORS
330
3C5
102
}
330
3C5
100
AcDbXrecord
280
     1
270
     1
271
     1
  0
XRECORD
  5
3CB
102
{ACAD_REACTORS
330
3C5
102
}
330
3C5
100
AcDbXrecord
280
     1
270
     1
271
     1
  0
XRECORD
  5
3C8
102
{ACAD_REACTORS
330
3C5
102
}
330
3C5
100
AcDbXrecord
280
     1
270
     1
271
     1
  0
XRECORD
  5
459
102
{ACAD_REACTORS
330
3D5
102
}
330
3D5
100
AcDbXrecord
280
     1
102
MATERIAL
148
0.0
149
0.0
149
0.0
 93
        0
 94
      127
282
     0
 72
     0
 77
     0
171
     0
175
     0
179
     0
273
     0
  0
XRECORD
  5
3D7
102
{ACAD_REACTORS
330
3D5
102
}
330
3D5
100
AcDbXrecord
280
     1
270
     1
271
     1
  0
XRECORD
  5
3D6
102
{ACAD_REACTORS
330
3D5
102
}
330
3D5
100
AcDbXrecord
280
     1
270
     1
271
     1
  0
XRECORD
  5
3DA
102
{ACAD_REACTORS
330
3D5
102
}
330
3D5
100
AcDbXrecord
280
     1
270
     1
271
     1
  0
XRECORD
  5
3D9
102
{ACAD_REACTORS
330
3D5
102
}
330
3D5
100
AcDbXrecord
280
     1
270
     1
271
     1
  0
XRECORD
  5
3DB
102
{ACAD_REACTORS
330
3D5
102
}
330
3D5
100
AcDbXrecord
280
     1
270
     1
271
     1
  0
XRECORD
  5
3D8
102
{ACAD_REACTORS
330
3D5
102
}
330
3D5
100
AcDbXrecord
280
     1
270
     1
271
     1
  0
XRECORD
  5
48D
102
{ACAD_REACTORS
330
48C
102
}
330
48C
100
AcDbXrecord
280
     1
102
DISPLAYNAME
  1
Imperial24
102
FLAGS
 90
        0
  0
CELLSTYLEMAP
  5
454
102
{ACAD_REACTORS
330
453
102
}
330
453
100
AcDbCellStyleMap
 90
        3
300
CELLSTYLE
  1
TABLEFORMAT_BEGIN
 90
        5
170
     1
 91
        0
 92
    32768
 62
   257
 93
        1
300
CONTENTFORMAT
  1
CONTENTFORMAT_BEGIN
 90
        0
 91
        0
 92
      512
 93
        0
300

 40
0.0
140
1.0
 94
        5
 62
     0
340
408
144
0.25
309
CONTENTFORMAT_END
171
     0
 94
        0
309
TABLEFORMAT_END
  1
CELLSTYLE_BEGIN
 90
        1
 91
        1
300
_TITLE
309
CELLSTYLE_END
300
CELLSTYLE
  1
TABLEFORMAT_BEGIN
 90
        5
170
     1
 91
        0
 92
        0
 62
   257
 93
        1
300
CONTENTFORMAT
  1
CONTENTFORMAT_BEGIN
 90
        0
 91
        0
 92
      512
 93
        0
300

 40
0.0
140
1.0
 94
        5
 62
     0
340
408
144
0.18
309
CONTENTFORMAT_END
171
     0
 94
        0
309
TABLEFORMAT_END
  1
CELLSTYLE_BEGIN
 90
        2
 91
        1
300
_HEADER
309
CELLSTYLE_END
300
CELLSTYLE
  1
TABLEFORMAT_BEGIN
 90
        5
170
     1
 91
        0
 92
        0
 62
   257
 93
        1
300
CONTENTFORMAT
  1
CONTENTFORMAT_BEGIN
 90
        0
 91
        0
 92
      512
 93
        0
300

 40
0.0
140
1.0
 94
        2
 62
     0
340
408
144
0.18
309
CONTENTFORMAT_END
171
     0
 94
        0
309
TABLEFORMAT_END
  1
CELLSTYLE_BEGIN
 90
        3
 91
        2
300
_DATA
309
CELLSTYLE_END
  0
XRECORD
  5
48A
102
{ACAD_REACTORS
330
453
102
}
330
453
100
AcDbXrecord
280
     1
102
ACAD_ROUNDTRIP_PRE2007_TABLESTYLE
 90
      512
 91
        0
  1

 92
      512
 93
        0
  2

 94
      512
 95
        0
  3

  0
XRECORD
  5
465
102
{ACAD_REACTORS
330
464
102
}
330
464
100
AcDbXrecord
280
     1
102
RTVSPost2010Prop28
280
     1
102
RTVSPost2010PropOp28
 70
     1
102
RTVSPost2010Prop29
280
     1
102
RTVSPost2010PropOp29
 70
     1
102
RTVSPost2010Prop30
280
     0
102
RTVSPost2010PropOp30
 70
     1
102
RTVSPost2010Prop31
280
     0
102
RTVSPost2010PropOp31
 70
     1
102
RTVSPost2010Prop32
280
     0
102
RTVSPost2010PropOp32
 70
     1
102
RTVSPost2010Prop33
280
     0
102
RTVSPost2010PropOp33
 70
     1
102
RTVSPost2010Prop34
280
     0
102
RTVSPost2010PropOp34
 70
     1
102
RTVSPost2010Prop35
280
     0
102
RTVSPost2010PropOp35
 70
     1
102
RTVSPost2010Prop36
280
     0
102
RTVSPost2010PropOp36
 70
     1
102
RTVSPost2010Prop37
 90
       50
102
RTVSPost2010PropOp37
 70
     1
102
RTVSPost2010Prop38
140
0.0
102
RTVSPost2010PropOp38
 70
     1
102
RTVSPost2010Prop39
140
1.0
102
RTVSPost2010PropOp39
 70
     1
102
RTVSPost2010Prop40
 90
        0
102
RTVSPost2010PropOp40
 70
     1
102
RTVSPost2010Prop41ColorIndex
 90
       18
102
RTVSPost2010Prop41ColorRGB
 90
        0
102
RTVSPost2010PropOp41
 70
     1
102
RTVSPost2010Prop42
 90
       50
102
RTVSPost2010PropOp42
 70
     1
102
RTVSPost2010Prop43
 90
        3
102
RTVSPost2010PropOp43
 70
     1
102
RTVSPost2010Prop44ColorIndex
 90
        5
102
RTVSPost2010Prop44ColorRGB
 90
      255
102
RTVSPost2010PropOp44
 70
     1
102
RTVSPost2010Prop45
280
     0
102
RTVSPost2010PropOp45
 70
     1
102
RTVSPost2010Prop46
 90
       50
102
RTVSPost2010PropOp46
 70
     1
102
RTVSPost2010Prop47
 90
       50
102
RTVSPost2010PropOp47
 70
     1
102
RTVSPost2010Prop48
 90
       50
102
RTVSPost2010PropOp48
 70
     1
102
RTVSPost2010Prop49
280
     0
102
RTVSPost2010PropOp49
 70
     1
102
RTVSPost2010Prop50
 90
       50
102
RTVSPost2010PropOp50
 70
     1
102
RTVSPost2010Prop51ColorIndex
 90
      256
102
RTVSPost2010Prop51ColorRGB
 90
-16777216
102
RTVSPost2010PropOp51
 70
     0
102
RTVSPost2010Prop52
140
1.0
102
RTVSPost2010PropOp52
 70
     0
102
RTVSPost2010Prop53
 90
        2
102
RTVSPost2010PropOp53
 70
     1
102
RTVSPost2010Prop54
  1
strokes_ogs.tif
102
RTVSPost2010PropOp54
 70
     1
102
RTVSPost2010Prop55
280
     0
102
RTVSPost2010PropOp55
 70
     1
102
RTVSPost2010Prop56
140
1.0
102
RTVSPost2010PropOp56
 70
     1
102
RTVSPost2010Prop57
140
1.0
102
RTVSPost2010PropOp57
 70
     1
102
RTVSPropertyOp0
 70
     1
102
RTVSPropertyOp1
 70
     1
102
RTVSPropertyOp2
 70
     1
102
RTVSPropertyOp3
 70
     1
102
RTVSPropertyOp4
 70
     1
102
RTVSPropertyOp5
 70
     1
102
RTVSPropertyOp6
 70
     1
102
RTVSPropertyOp7
 70
     1
102
RTVSPropertyOp8
 70
     1
102
RTVSPropertyOp9
 70
     1
102
RTVSPropertyOp10
 70
     1
102
RTVSPropertyOp11
 70
     1
102
RTVSPropertyOp12
 70
     1
102
RTVSPropertyOp13
 70
     1
102
RTVSPropertyOp14
 70
     1
102
RTVSPropertyOp15
 70
     1
102
RTVSPropertyOp16
 70
     1
102
RTVSPropertyOp17
 70
     1
102
RTVSPropertyOp18
 70
     1
102
RTVSPropertyOp19
 70
     1
102
RTVSPropertyOp20
 70
     1
102
RTVSPropertyOp21
 70
     1
102
RTVSPropertyOp22
 70
     1
102
RTVSPropertyOp23
 70
     1
102
RTVSPropertyOp24
 70
     1
102
RTVSPropertyOp25
 70
     1
102
RTVSPropertyOp26
 70
     1
102
RTVSPropertyOp27
 70
     1
102
RTVSPropertyOp28
 70
     1
102
RTVSPropertyOp29
 70
     1
102
RTVSPropertyOp30
 70
     1
102
RTVSPropertyOp31
 70
     1
102
RTVSPropertyOp32
 70
     1
102
RTVSPropertyOp33
 70
     1
102
RTVSPropertyOp34
 70
     1
102
RTVSPropertyOp35
 70
     1
102
RTVSPropertyOp36
 70
     1
102
RTVSPropertyOp37
 70
     1
102
RTVSPropertyOp38
 70
     1
102
RTVSPropertyOp39
 70
     1
102
RTVSPropertyOp40
 70
     1
102
RTVSPropertyOp41
 70
     1
102
RTVSPropertyOp42
 70
     1
102
RTVSPropertyOp43
 70
     1
102
RTVSPropertyOp44
 70
     1
102
RTVSPropertyOp45
 70
     1
102
RTVSPropertyOp46
 70
     1
102
RTVSPropertyOp47
 70
     1
102
RTVSPropertyOp48
 70
     1
102
RTVSPropertyOp49
 70
     1
102
RTVSPropertyOp50
 70
     1
102
RTVSPropertyOp51
 70
     0
102
RTVSPropertyOp52
 70
     0
102
RTVSPropertyOp53
 70
     1
102
RTVSPropertyOp54
 70
     1
102
RTVSPropertyOp55
 70
     1
102
RTVSPropertyOp56
 70
     1
102
RTVSPropertyOp57
 70
     1
102
RTVSPropertyOp58
 70
     1
102
RTVSPropertyOp59
 70
     1
102
RTVSPropertyOp60
 70
     1
102
RTVSPropertyOp61
 70
     1
102
RTVSPropertyOp62
 70
     1
  0
XRECORD
  5
463
102
{ACAD_REACTORS
330
462
102
}
330
462
100
AcDbXrecord
280
     1
102
RTVSPost2010Prop28
280
     0
102
RTVSPost2010PropOp28
 70
     1
102
RTVSPost2010Prop29
280
     1
102
RTVSPost2010PropOp29
 70
     1
102
RTVSPost2010Prop30
280
     1
102
RTVSPost2010PropOp30
 70
     1
102
RTVSPost2010Prop31
280
     0
102
RTVSPost2010PropOp31
 70
     1
102
RTVSPost2010Prop32
280
     0
102
RTVSPost2010PropOp32
 70
     1
102
RTVSPost2010Prop33
280
     0
102
RTVSPost2010PropOp33
 70
     1
102
RTVSPost2010Prop34
280
     0
102
RTVSPost2010PropOp34
 70
     1
102
RTVSPost2010Prop35
280
     0
102
RTVSPost2010PropOp35
 70
     1
102
RTVSPost2010Prop36
280
     0
102
RTVSPost2010PropOp36
 70
     1
102
RTVSPost2010Prop37
 90
       50
102
RTVSPost2010PropOp37
 70
     1
102
RTVSPost2010Prop38
140
0.0
102
RTVSPost2010PropOp38
 70
     1
102
RTVSPost2010Prop39
140
1.0
102
RTVSPost2010PropOp39
 70
     1
102
RTVSPost2010Prop40
 90
        0
102
RTVSPost2010PropOp40
 70
     1
102
RTVSPost2010Prop41ColorIndex
 90
       18
102
RTVSPost2010Prop41ColorRGB
 90
        0
102
RTVSPost2010PropOp41
 70
     1
102
RTVSPost2010Prop42
 90
       50
102
RTVSPost2010PropOp42
 70
     1
102
RTVSPost2010Prop43
 90
        3
102
RTVSPost2010PropOp43
 70
     1
102
RTVSPost2010Prop44ColorIndex
 90
        5
102
RTVSPost2010Prop44ColorRGB
 90
      255
102
RTVSPost2010PropOp44
 70
     1
102
RTVSPost2010Prop45
280
     0
102
RTVSPost2010PropOp45
 70
     1
102
RTVSPost2010Prop46
 90
       50
102
RTVSPost2010PropOp46
 70
     1
102
RTVSPost2010Prop47
 90
       50
102
RTVSPost2010PropOp47
 70
     1
102
RTVSPost2010Prop48
 90
       50
102
RTVSPost2010PropOp48
 70
     1
102
RTVSPost2010Prop49
280
     0
102
RTVSPost2010PropOp49
 70
     1
102
RTVSPost2010Prop50
 90
       50
102
RTVSPost2010PropOp50
 70
     1
102
RTVSPost2010Prop51ColorIndex
 90
      256
102
RTVSPost2010Prop51ColorRGB
 90
-16777216
102
RTVSPost2010PropOp51
 70
     0
102
RTVSPost2010Prop52
140
1.0
102
RTVSPost2010PropOp52
 70
     0
102
RTVSPost2010Prop53
 90
        2
102
RTVSPost2010PropOp53
 70
     1
102
RTVSPost2010Prop54
  1
strokes_ogs.tif
102
RTVSPost2010PropOp54
 70
     1
102
RTVSPost2010Prop55
280
     0
102
RTVSPost2010PropOp55
 70
     1
102
RTVSPost2010Prop56
140
1.0
102
RTVSPost2010PropOp56
 70
     1
102
RTVSPost2010Prop57
140
1.0
102
RTVSPost2010PropOp57
 70
     1
102
RTVSPropertyOp0
 70
     1
102
RTVSPropertyOp1
 70
     1
102
RTVSPropertyOp2
 70
     1
102
RTVSPropertyOp3
 70
     1
102
RTVSPropertyOp4
 70
     1
102
RTVSPropertyOp5
 70
     1
102
RTVSPropertyOp6
 70
     1
102
RTVSPropertyOp7
 70
     1
102
RTVSPropertyOp8
 70
     1
102
RTVSPropertyOp9
 70
     1
102
RTVSPropertyOp10
 70
     1
102
RTVSPropertyOp11
 70
     1
102
RTVSPropertyOp12
 70
     1
102
RTVSPropertyOp13
 70
     1
102
RTVSPropertyOp14
 70
     1
102
RTVSPropertyOp15
 70
     1
102
RTVSPropertyOp16
 70
     1
102
RTVSPropertyOp17
 70
     1
102
RTVSPropertyOp18
 70
     1
102
RTVSPropertyOp19
 70
     1
102
RTVSPropertyOp20
 70
     1
102
RTVSPropertyOp21
 70
     1
102
RTVSPropertyOp22
 70
     1
102
RTVSPropertyOp23
 70
     1
102
RTVSPropertyOp24
 70
     1
102
RTVSPropertyOp25
 70
     1
102
RTVSPropertyOp26
 70
     1
102
RTVSPropertyOp27
 70
     1
102
RTVSPropertyOp28
 70
     1
102
RTVSPropertyOp29
 70
     1
102
RTVSPropertyOp30
 70
     1
102
RTVSPropertyOp31
 70
     1
102
RTVSPropertyOp32
 70
     1
102
RTVSPropertyOp33
 70
     1
102
RTVSPropertyOp34
 70
     1
102
RTVSPropertyOp35
 70
     1
102
RTVSPropertyOp36
 70
     1
102
RTVSPropertyOp37
 70
     1
102
RTVSPropertyOp38
 70
     1
102
RTVSPropertyOp39
 70
     1
102
RTVSPropertyOp40
 70
     1
102
RTVSPropertyOp41
 70
     1
102
RTVSPropertyOp42
 70
     1
102
RTVSPropertyOp43
 70
     1
102
RTVSPropertyOp44
 70
     1
102
RTVSPropertyOp45
 70
     1
102
RTVSPropertyOp46
 70
     1
102
RTVSPropertyOp47
 70
     1
102
RTVSPropertyOp48
 70
     1
102
RTVSPropertyOp49
 70
     1
102
RTVSPropertyOp50
 70
     1
102
RTVSPropertyOp51
 70
     0
102
RTVSPropertyOp52
 70
     0
102
RTVSPropertyOp53
 70
     1
102
RTVSPropertyOp54
 70
     1
102
RTVSPropertyOp55
 70
     1
102
RTVSPropertyOp56
 70
     1
102
RTVSPropertyOp57
 70
     1
102
RTVSPropertyOp58
 70
     1
102
RTVSPropertyOp59
 70
     1
102
RTVSPropertyOp60
 70
     1
102
RTVSPropertyOp61
 70
     1
102
RTVSPropertyOp62
 70
     1
  0
XRECORD
  5
471
102
{ACAD_REACTORS
330
470
102
}
330
470
100
AcDbXrecord
280
     1
102
RTVSPost2010Prop28
280
     0
102
RTVSPost2010PropOp28
 70
     1
102
RTVSPost2010Prop29
280
     1
102
RTVSPost2010PropOp29
 70
     1
102
RTVSPost2010Prop30
280
     1
102
RTVSPost2010PropOp30
 70
     1
102
RTVSPost2010Prop31
280
     0
102
RTVSPost2010PropOp31
 70
     1
102
RTVSPost2010Prop32
280
     0
102
RTVSPost2010PropOp32
 70
     1
102
RTVSPost2010Prop33
280
     0
102
RTVSPost2010PropOp33
 70
     1
102
RTVSPost2010Prop34
280
     0
102
RTVSPost2010PropOp34
 70
     1
102
RTVSPost2010Prop35
280
     0
102
RTVSPost2010PropOp35
 70
     1
102
RTVSPost2010Prop36
280
     0
102
RTVSPost2010PropOp36
 70
     1
102
RTVSPost2010Prop37
 90
       50
102
RTVSPost2010PropOp37
 70
     1
102
RTVSPost2010Prop38
140
0.0
102
RTVSPost2010PropOp38
 70
     1
102
RTVSPost2010Prop39
140
1.0
102
RTVSPost2010PropOp39
 70
     1
102
RTVSPost2010Prop40
 90
        0
102
RTVSPost2010PropOp40
 70
     1
102
RTVSPost2010Prop41ColorIndex
 90
       18
102
RTVSPost2010Prop41ColorRGB
 90
        0
102
RTVSPost2010PropOp41
 70
     1
102
RTVSPost2010Prop42
 90
       50
102
RTVSPost2010PropOp42
 70
     1
102
RTVSPost2010Prop43
 90
        3
102
RTVSPost2010PropOp43
 70
     1
102
RTVSPost2010Prop44ColorIndex
 90
        5
102
RTVSPost2010Prop44ColorRGB
 90
      255
102
RTVSPost2010PropOp44
 70
     1
102
RTVSPost2010Prop45
280
     0
102
RTVSPost2010PropOp45
 70
     1
102
RTVSPost2010Prop46
 90
       50
102
RTVSPost2010PropOp46
 70
     1
102
RTVSPost2010Prop47
 90
       50
102
RTVSPost2010PropOp47
 70
     1
102
RTVSPost2010Prop48
 90
       50
102
RTVSPost2010PropOp48
 70
     1
102
RTVSPost2010Prop49
280
     0
102
RTVSPost2010PropOp49
 70
     1
102
RTVSPost2010Prop50
 90
       50
102
RTVSPost2010PropOp50
 70
     1
102
RTVSPost2010Prop51ColorIndex
 90
      256
102
RTVSPost2010Prop51ColorRGB
 90
-16777216
102
RTVSPost2010PropOp51
 70
     0
102
RTVSPost2010Prop52
140
1.0
102
RTVSPost2010PropOp52
 70
     0
102
RTVSPost2010Prop53
 90
        2
102
RTVSPost2010PropOp53
 70
     1
102
RTVSPost2010Prop54
  1
strokes_ogs.tif
102
RTVSPost2010PropOp54
 70
     1
102
RTVSPost2010Prop55
280
     0
102
RTVSPost2010PropOp55
 70
     1
102
RTVSPost2010Prop56
140
1.0
102
RTVSPost2010PropOp56
 70
     1
102
RTVSPost2010Prop57
140
1.0
102
RTVSPost2010PropOp57
 70
     1
102
RTVSPropertyOp0
 70
     1
102
RTVSPropertyOp1
 70
     1
102
RTVSPropertyOp2
 70
     1
102
RTVSPropertyOp3
 70
     1
102
RTVSPropertyOp4
 70
     1
102
RTVSPropertyOp5
 70
     1
102
RTVSPropertyOp6
 70
     1
102
RTVSPropertyOp7
 70
     1
102
RTVSPropertyOp8
 70
     1
102
RTVSPropertyOp9
 70
     1
102
RTVSPropertyOp10
 70
     1
102
RTVSPropertyOp11
 70
     1
102
RTVSPropertyOp12
 70
     1
102
RTVSPropertyOp13
 70
     1
102
RTVSPropertyOp14
 70
     1
102
RTVSPropertyOp15
 70
     1
102
RTVSPropertyOp16
 70
     1
102
RTVSPropertyOp17
 70
     1
102
RTVSPropertyOp18
 70
     1
102
RTVSPropertyOp19
 70
     1
102
RTVSPropertyOp20
 70
     1
102
RTVSPropertyOp21
 70
     1
102
RTVSPropertyOp22
 70
     1
102
RTVSPropertyOp23
 70
     1
102
RTVSPropertyOp24
 70
     1
102
RTVSPropertyOp25
 70
     1
102
RTVSPropertyOp26
 70
     1
102
RTVSPropertyOp27
 70
     1
102
RTVSPropertyOp28
 70
     1
102
RTVSPropertyOp29
 70
     1
102
RTVSPropertyOp30
 70
     1
102
RTVSPropertyOp31
 70
     1
102
RTVSPropertyOp32
 70
     1
102
RTVSPropertyOp33
 70
     1
102
RTVSPropertyOp34
 70
     1
102
RTVSPropertyOp35
 70
     1
102
RTVSPropertyOp36
 70
     1
102
RTVSPropertyOp37
 70
     1
102
RTVSPropertyOp38
 70
     1
102
RTVSPropertyOp39
 70
     1
102
RTVSPropertyOp40
 70
     1
102
RTVSPropertyOp41
 70
     1
102
RTVSPropertyOp42
 70
     1
102
RTVSPropertyOp43
 70
     1
102
RTVSPropertyOp44
 70
     1
102
RTVSPropertyOp45
 70
     1
102
RTVSPropertyOp46
 70
     1
102
RTVSPropertyOp47
 70
     1
102
RTVSPropertyOp48
 70
     1
102
RTVSPropertyOp49
 70
     1
102
RTVSPropertyOp50
 70
     1
102
RTVSPropertyOp51
 70
     0
102
RTVSPropertyOp52
 70
     0
102
RTVSPropertyOp53
 70
     1
102
RTVSPropertyOp54
 70
     1
102
RTVSPropertyOp55
 70
     1
102
RTVSPropertyOp56
 70
     1
102
RTVSPropertyOp57
 70
     1
102
RTVSPropertyOp58
 70
     1
102
RTVSPropertyOp59
 70
     1
102
RTVSPropertyOp60
 70
     1
102
RTVSPropertyOp61
 70
     1
102
RTVSPropertyOp62
 70
     1
  0
XRECORD
  5
479
102
{ACAD_REACTORS
330
478
102
}
330
478
100
AcDbXrecord
280
     1
102
RTVSPost2010Prop28
280
     0
102
RTVSPost2010PropOp28
 70
     1
102
RTVSPost2010Prop29
280
     1
102
RTVSPost2010PropOp29
 70
     1
102
RTVSPost2010Prop30
280
     1
102
RTVSPost2010PropOp30
 70
     1
102
RTVSPost2010Prop31
280
     0
102
RTVSPost2010PropOp31
 70
     1
102
RTVSPost2010Prop32
280
     0
102
RTVSPost2010PropOp32
 70
     1
102
RTVSPost2010Prop33
280
     0
102
RTVSPost2010PropOp33
 70
     1
102
RTVSPost2010Prop34
280
     0
102
RTVSPost2010PropOp34
 70
     1
102
RTVSPost2010Prop35
280
     0
102
RTVSPost2010PropOp35
 70
     1
102
RTVSPost2010Prop36
280
     0
102
RTVSPost2010PropOp36
 70
     1
102
RTVSPost2010Prop37
 90
       50
102
RTVSPost2010PropOp37
 70
     1
102
RTVSPost2010Prop38
140
0.0
102
RTVSPost2010PropOp38
 70
     1
102
RTVSPost2010Prop39
140
1.0
102
RTVSPost2010PropOp39
 70
     1
102
RTVSPost2010Prop40
 90
        0
102
RTVSPost2010PropOp40
 70
     1
102
RTVSPost2010Prop41ColorIndex
 90
       18
102
RTVSPost2010Prop41ColorRGB
 90
        0
102
RTVSPost2010PropOp41
 70
     1
102
RTVSPost2010Prop42
 90
       50
102
RTVSPost2010PropOp42
 70
     1
102
RTVSPost2010Prop43
 90
        3
102
RTVSPost2010PropOp43
 70
     1
102
RTVSPost2010Prop44ColorIndex
 90
        5
102
RTVSPost2010Prop44ColorRGB
 90
      255
102
RTVSPost2010PropOp44
 70
     1
102
RTVSPost2010Prop45
280
     0
102
RTVSPost2010PropOp45
 70
     1
102
RTVSPost2010Prop46
 90
       50
102
RTVSPost2010PropOp46
 70
     1
102
RTVSPost2010Prop47
 90
       50
102
RTVSPost2010PropOp47
 70
     1
102
RTVSPost2010Prop48
 90
       50
102
RTVSPost2010PropOp48
 70
     1
102
RTVSPost2010Prop49
280
     0
102
RTVSPost2010PropOp49
 70
     1
102
RTVSPost2010Prop50
 90
       50
102
RTVSPost2010PropOp50
 70
     1
102
RTVSPost2010Prop51ColorIndex
 90
      256
102
RTVSPost2010Prop51ColorRGB
 90
-16777216
102
RTVSPost2010PropOp51
 70
     0
102
RTVSPost2010Prop52
140
1.0
102
RTVSPost2010PropOp52
 70
     0
102
RTVSPost2010Prop53
 90
        2
102
RTVSPost2010PropOp53
 70
     1
102
RTVSPost2010Prop54
  1
strokes_ogs.tif
102
RTVSPost2010PropOp54
 70
     1
102
RTVSPost2010Prop55
280
     0
102
RTVSPost2010PropOp55
 70
     1
102
RTVSPost2010Prop56
140
1.0
102
RTVSPost2010PropOp56
 70
     1
102
RTVSPost2010Prop57
140
1.0
102
RTVSPost2010PropOp57
 70
     1
102
RTVSPropertyOp0
 70
     1
102
RTVSPropertyOp1
 70
     1
102
RTVSPropertyOp2
 70
     1
102
RTVSPropertyOp3
 70
     1
102
RTVSPropertyOp4
 70
     1
102
RTVSPropertyOp5
 70
     1
102
RTVSPropertyOp6
 70
     1
102
RTVSPropertyOp7
 70
     1
102
RTVSPropertyOp8
 70
     1
102
RTVSPropertyOp9
 70
     1
102
RTVSPropertyOp10
 70
     1
102
RTVSPropertyOp11
 70
     1
102
RTVSPropertyOp12
 70
     1
102
RTVSPropertyOp13
 70
     1
102
RTVSPropertyOp14
 70
     1
102
RTVSPropertyOp15
 70
     1
102
RTVSPropertyOp16
 70
     1
102
RTVSPropertyOp17
 70
     1
102
RTVSPropertyOp18
 70
     1
102
RTVSPropertyOp19
 70
     1
102
RTVSPropertyOp20
 70
     1
102
RTVSPropertyOp21
 70
     1
102
RTVSPropertyOp22
 70
     1
102
RTVSPropertyOp23
 70
     1
102
RTVSPropertyOp24
 70
     1
102
RTVSPropertyOp25
 70
     1
102
RTVSPropertyOp26
 70
     1
102
RTVSPropertyOp27
 70
     1
102
RTVSPropertyOp28
 70
     1
102
RTVSPropertyOp29
 70
     1
102
RTVSPropertyOp30
 70
     1
102
RTVSPropertyOp31
 70
     1
102
RTVSPropertyOp32
 70
     1
102
RTVSPropertyOp33
 70
     1
102
RTVSPropertyOp34
 70
     1
102
RTVSPropertyOp35
 70
     1
102
RTVSPropertyOp36
 70
     1
102
RTVSPropertyOp37
 70
     1
102
RTVSPropertyOp38
 70
     1
102
RTVSPropertyOp39
 70
     1
102
RTVSPropertyOp40
 70
     1
102
RTVSPropertyOp41
 70
     1
102
RTVSPropertyOp42
 70
     1
102
RTVSPropertyOp43
 70
     1
102
RTVSPropertyOp44
 70
     1
102
RTVSPropertyOp45
 70
     1
102
RTVSPropertyOp46
 70
     1
102
RTVSPropertyOp47
 70
     1
102
RTVSPropertyOp48
 70
     1
102
RTVSPropertyOp49
 70
     1
102
RTVSPropertyOp50
 70
     1
102
RTVSPropertyOp51
 70
     0
102
RTVSPropertyOp52
 70
     0
102
RTVSPropertyOp53
 70
     1
102
RTVSPropertyOp54
 70
     1
102
RTVSPropertyOp55
 70
     1
102
RTVSPropertyOp56
 70
     1
102
RTVSPropertyOp57
 70
     1
102
RTVSPropertyOp58
 70
     1
102
RTVSPropertyOp59
 70
     1
102
RTVSPropertyOp60
 70
     1
102
RTVSPropertyOp61
 70
     1
102
RTVSPropertyOp62
 70
     1
  0
XRECORD
  5
46B
102
{ACAD_REACTORS
330
46A
102
}
330
46A
100
AcDbXrecord
280
     1
102
RTVSPost2010Prop28
280
     0
102
RTVSPost2010PropOp28
 70
     1
102
RTVSPost2010Prop29
280
     1
102
RTVSPost2010PropOp29
 70
     1
102
RTVSPost2010Prop30
280
     1
102
RTVSPost2010PropOp30
 70
     1
102
RTVSPost2010Prop31
280
     0
102
RTVSPost2010PropOp31
 70
     1
102
RTVSPost2010Prop32
280
     0
102
RTVSPost2010PropOp32
 70
     1
102
RTVSPost2010Prop33
280
     0
102
RTVSPost2010PropOp33
 70
     1
102
RTVSPost2010Prop34
280
     0
102
RTVSPost2010PropOp34
 70
     1
102
RTVSPost2010Prop35
280
     0
102
RTVSPost2010PropOp35
 70
     1
102
RTVSPost2010Prop36
280
     0
102
RTVSPost2010PropOp36
 70
     1
102
RTVSPost2010Prop37
 90
       50
102
RTVSPost2010PropOp37
 70
     1
102
RTVSPost2010Prop38
140
0.0
102
RTVSPost2010PropOp38
 70
     1
102
RTVSPost2010Prop39
140
1.0
102
RTVSPost2010PropOp39
 70
     1
102
RTVSPost2010Prop40
 90
        0
102
RTVSPost2010PropOp40
 70
     1
102
RTVSPost2010Prop41ColorIndex
 90
       18
102
RTVSPost2010Prop41ColorRGB
 90
        0
102
RTVSPost2010PropOp41
 70
     1
102
RTVSPost2010Prop42
 90
       50
102
RTVSPost2010PropOp42
 70
     1
102
RTVSPost2010Prop43
 90
        3
102
RTVSPost2010PropOp43
 70
     1
102
RTVSPost2010Prop44ColorIndex
 90
        5
102
RTVSPost2010Prop44ColorRGB
 90
      255
102
RTVSPost2010PropOp44
 70
     1
102
RTVSPost2010Prop45
280
     0
102
RTVSPost2010PropOp45
 70
     1
102
RTVSPost2010Prop46
 90
       50
102
RTVSPost2010PropOp46
 70
     1
102
RTVSPost2010Prop47
 90
       50
102
RTVSPost2010PropOp47
 70
     1
102
RTVSPost2010Prop48
 90
       50
102
RTVSPost2010PropOp48
 70
     1
102
RTVSPost2010Prop49
280
     0
102
RTVSPost2010PropOp49
 70
     1
102
RTVSPost2010Prop50
 90
       50
102
RTVSPost2010PropOp50
 70
     1
102
RTVSPost2010Prop51ColorIndex
 90
      256
102
RTVSPost2010Prop51ColorRGB
 90
-16777216
102
RTVSPost2010PropOp51
 70
     0
102
RTVSPost2010Prop52
140
1.0
102
RTVSPost2010PropOp52
 70
     0
102
RTVSPost2010Prop53
 90
        2
102
RTVSPost2010PropOp53
 70
     1
102
RTVSPost2010Prop54
  1
strokes_ogs.tif
102
RTVSPost2010PropOp54
 70
     1
102
RTVSPost2010Prop55
280
     0
102
RTVSPost2010PropOp55
 70
     1
102
RTVSPost2010Prop56
140
1.0
102
RTVSPost2010PropOp56
 70
     1
102
RTVSPost2010Prop57
140
1.0
102
RTVSPost2010PropOp57
 70
     1
102
RTVSPropertyOp0
 70
     1
102
RTVSPropertyOp1
 70
     1
102
RTVSPropertyOp2
 70
     1
102
RTVSPropertyOp3
 70
     1
102
RTVSPropertyOp4
 70
     1
102
RTVSPropertyOp5
 70
     1
102
RTVSPropertyOp6
 70
     1
102
RTVSPropertyOp7
 70
     1
102
RTVSPropertyOp8
 70
     1
102
RTVSPropertyOp9
 70
     1
102
RTVSPropertyOp10
 70
     1
102
RTVSPropertyOp11
 70
     1
102
RTVSPropertyOp12
 70
     1
102
RTVSPropertyOp13
 70
     1
102
RTVSPropertyOp14
 70
     1
102
RTVSPropertyOp15
 70
     1
102
RTVSPropertyOp16
 70
     1
102
RTVSPropertyOp17
 70
     1
102
RTVSPropertyOp18
 70
     1
102
RTVSPropertyOp19
 70
     1
102
RTVSPropertyOp20
 70
     1
102
RTVSPropertyOp21
 70
     1
102
RTVSPropertyOp22
 70
     1
102
RTVSPropertyOp23
 70
     1
102
RTVSPropertyOp24
 70
     1
102
RTVSPropertyOp25
 70
     1
102
RTVSPropertyOp26
 70
     1
102
RTVSPropertyOp27
 70
     1
102
RTVSPropertyOp28
 70
     1
102
RTVSPropertyOp29
 70
     1
102
RTVSPropertyOp30
 70
     1
102
RTVSPropertyOp31
 70
     1
102
RTVSPropertyOp32
 70
     1
102
RTVSPropertyOp33
 70
     1
102
RTVSPropertyOp34
 70
     1
102
RTVSPropertyOp35
 70
     1
102
RTVSPropertyOp36
 70
     1
102
RTVSPropertyOp37
 70
     1
102
RTVSPropertyOp38
 70
     1
102
RTVSPropertyOp39
 70
     1
102
RTVSPropertyOp40
 70
     1
102
RTVSPropertyOp41
 70
     1
102
RTVSPropertyOp42
 70
     1
102
RTVSPropertyOp43
 70
     1
102
RTVSPropertyOp44
 70
     1
102
RTVSPropertyOp45
 70
     1
102
RTVSPropertyOp46
 70
     1
102
RTVSPropertyOp47
 70
     1
102
RTVSPropertyOp48
 70
     1
102
RTVSPropertyOp49
 70
     1
102
RTVSPropertyOp50
 70
     1
102
RTVSPropertyOp51
 70
     0
102
RTVSPropertyOp52
 70
     0
102
RTVSPropertyOp53
 70
     1
102
RTVSPropertyOp54
 70
     1
102
RTVSPropertyOp55
 70
     1
102
RTVSPropertyOp56
 70
     1
102
RTVSPropertyOp57
 70
     1
102
RTVSPropertyOp58
 70
     1
102
RTVSPropertyOp59
 70
     1
102
RTVSPropertyOp60
 70
     1
102
RTVSPropertyOp61
 70
     1
102
RTVSPropertyOp62
 70
     1
  0
XRECORD
  5
46F
102
{ACAD_REACTORS
330
46E
102
}
330
46E
100
AcDbXrecord
280
     1
102
RTVSPost2010Prop28
280
     0
102
RTVSPost2010PropOp28
 70
     1
102
RTVSPost2010Prop29
280
     1
102
RTVSPost2010PropOp29
 70
     1
102
RTVSPost2010Prop30
280
     1
102
RTVSPost2010PropOp30
 70
     1
102
RTVSPost2010Prop31
280
     0
102
RTVSPost2010PropOp31
 70
     1
102
RTVSPost2010Prop32
280
     0
102
RTVSPost2010PropOp32
 70
     1
102
RTVSPost2010Prop33
280
     0
102
RTVSPost2010PropOp33
 70
     1
102
RTVSPost2010Prop34
280
     0
102
RTVSPost2010PropOp34
 70
     1
102
RTVSPost2010Prop35
280
     0
102
RTVSPost2010PropOp35
 70
     1
102
RTVSPost2010Prop36
280
     0
102
RTVSPost2010PropOp36
 70
     1
102
RTVSPost2010Prop37
 90
       50
102
RTVSPost2010PropOp37
 70
     1
102
RTVSPost2010Prop38
140
0.0
102
RTVSPost2010PropOp38
 70
     1
102
RTVSPost2010Prop39
140
1.0
102
RTVSPost2010PropOp39
 70
     1
102
RTVSPost2010Prop40
 90
        0
102
RTVSPost2010PropOp40
 70
     1
102
RTVSPost2010Prop41ColorIndex
 90
       18
102
RTVSPost2010Prop41ColorRGB
 90
        0
102
RTVSPost2010PropOp41
 70
     1
102
RTVSPost2010Prop42
 90
       50
102
RTVSPost2010PropOp42
 70
     1
102
RTVSPost2010Prop43
 90
        3
102
RTVSPost2010PropOp43
 70
     1
102
RTVSPost2010Prop44ColorIndex
 90
        5
102
RTVSPost2010Prop44ColorRGB
 90
      255
102
RTVSPost2010PropOp44
 70
     1
102
RTVSPost2010Prop45
280
     0
102
RTVSPost2010PropOp45
 70
     1
102
RTVSPost2010Prop46
 90
       50
102
RTVSPost2010PropOp46
 70
     1
102
RTVSPost2010Prop47
 90
       50
102
RTVSPost2010PropOp47
 70
     1
102
RTVSPost2010Prop48
 90
       50
102
RTVSPost2010PropOp48
 70
     1
102
RTVSPost2010Prop49
280
     0
102
RTVSPost2010PropOp49
 70
     1
102
RTVSPost2010Prop50
 90
       50
102
RTVSPost2010PropOp50
 70
     1
102
RTVSPost2010Prop51ColorIndex
 90
      256
102
RTVSPost2010Prop51ColorRGB
 90
-16777216
102
RTVSPost2010PropOp51
 70
     0
102
RTVSPost2010Prop52
140
1.0
102
RTVSPost2010PropOp52
 70
     0
102
RTVSPost2010Prop53
 90
        2
102
RTVSPost2010PropOp53
 70
     1
102
RTVSPost2010Prop54
  1
strokes_ogs.tif
102
RTVSPost2010PropOp54
 70
     1
102
RTVSPost2010Prop55
280
     0
102
RTVSPost2010PropOp55
 70
     1
102
RTVSPost2010Prop56
140
1.0
102
RTVSPost2010PropOp56
 70
     1
102
RTVSPost2010Prop57
140
1.0
102
RTVSPost2010PropOp57
 70
     1
102
RTVSPropertyOp0
 70
     1
102
RTVSPropertyOp1
 70
     1
102
RTVSPropertyOp2
 70
     1
102
RTVSPropertyOp3
 70
     1
102
RTVSPropertyOp4
 70
     1
102
RTVSPropertyOp5
 70
     1
102
RTVSPropertyOp6
 70
     1
102
RTVSPropertyOp7
 70
     1
102
RTVSPropertyOp8
 70
     1
102
RTVSPropertyOp9
 70
     1
102
RTVSPropertyOp10
 70
     1
102
RTVSPropertyOp11
 70
     1
102
RTVSPropertyOp12
 70
     1
102
RTVSPropertyOp13
 70
     1
102
RTVSPropertyOp14
 70
     1
102
RTVSPropertyOp15
 70
     1
102
RTVSPropertyOp16
 70
     1
102
RTVSPropertyOp17
 70
     1
102
RTVSPropertyOp18
 70
     1
102
RTVSPropertyOp19
 70
     1
102
RTVSPropertyOp20
 70
     1
102
RTVSPropertyOp21
 70
     1
102
RTVSPropertyOp22
 70
     1
102
RTVSPropertyOp23
 70
     1
102
RTVSPropertyOp24
 70
     1
102
RTVSPropertyOp25
 70
     1
102
RTVSPropertyOp26
 70
     1
102
RTVSPropertyOp27
 70
     1
102
RTVSPropertyOp28
 70
     1
102
RTVSPropertyOp29
 70
     1
102
RTVSPropertyOp30
 70
     1
102
RTVSPropertyOp31
 70
     1
102
RTVSPropertyOp32
 70
     1
102
RTVSPropertyOp33
 70
     1
102
RTVSPropertyOp34
 70
     1
102
RTVSPropertyOp35
 70
     1
102
RTVSPropertyOp36
 70
     1
102
RTVSPropertyOp37
 70
     1
102
RTVSPropertyOp38
 70
     1
102
RTVSPropertyOp39
 70
     1
102
RTVSPropertyOp40
 70
     1
102
RTVSPropertyOp41
 70
     1
102
RTVSPropertyOp42
 70
     1
102
RTVSPropertyOp43
 70
     1
102
RTVSPropertyOp44
 70
     1
102
RTVSPropertyOp45
 70
     1
102
RTVSPropertyOp46
 70
     1
102
RTVSPropertyOp47
 70
     1
102
RTVSPropertyOp48
 70
     1
102
RTVSPropertyOp49
 70
     1
102
RTVSPropertyOp50
 70
     1
102
RTVSPropertyOp51
 70
     0
102
RTVSPropertyOp52
 70
     0
102
RTVSPropertyOp53
 70
     1
102
RTVSPropertyOp54
 70
     1
102
RTVSPropertyOp55
 70
     1
102
RTVSPropertyOp56
 70
     1
102
RTVSPropertyOp57
 70
     1
102
RTVSPropertyOp58
 70
     1
102
RTVSPropertyOp59
 70
     1
102
RTVSPropertyOp60
 70
     1
102
RTVSPropertyOp61
 70
     1
102
RTVSPropertyOp62
 70
     1
  0
XRECORD
  5
489
102
{ACAD_REACTORS
330
488
102
}
330
488
100
AcDbXrecord
280
     1
102
RTVSPost2010Prop28
280
     0
102
RTVSPost2010PropOp28
 70
     1
102
RTVSPost2010Prop29
280
     1
102
RTVSPost2010PropOp29
 70
     1
102
RTVSPost2010Prop30
280
     1
102
RTVSPost2010PropOp30
 70
     1
102
RTVSPost2010Prop31
280
     0
102
RTVSPost2010PropOp31
 70
     1
102
RTVSPost2010Prop32
280
     0
102
RTVSPost2010PropOp32
 70
     1
102
RTVSPost2010Prop33
280
     0
102
RTVSPost2010PropOp33
 70
     1
102
RTVSPost2010Prop34
280
     0
102
RTVSPost2010PropOp34
 70
     1
102
RTVSPost2010Prop35
280
     0
102
RTVSPost2010PropOp35
 70
     1
102
RTVSPost2010Prop36
280
     0
102
RTVSPost2010PropOp36
 70
     1
102
RTVSPost2010Prop37
 90
       50
102
RTVSPost2010PropOp37
 70
     0
102
RTVSPost2010Prop38
140
0.0
102
RTVSPost2010PropOp38
 70
     0
102
RTVSPost2010Prop39
140
1.0
102
RTVSPost2010PropOp39
 70
     0
102
RTVSPost2010Prop40
 90
        0
102
RTVSPost2010PropOp40
 70
     0
102
RTVSPost2010Prop41ColorIndex
 90
       18
102
RTVSPost2010Prop41ColorRGB
 90
        0
102
RTVSPost2010PropOp41
 70
     0
102
RTVSPost2010Prop42
 90
       50
102
RTVSPost2010PropOp42
 70
     0
102
RTVSPost2010Prop43
 90
        3
102
RTVSPost2010PropOp43
 70
     0
102
RTVSPost2010Prop44ColorIndex
 90
        5
102
RTVSPost2010Prop44ColorRGB
 90
      255
102
RTVSPost2010PropOp44
 70
     0
102
RTVSPost2010Prop45
280
     0
102
RTVSPost2010PropOp45
 70
     1
102
RTVSPost2010Prop46
 90
       50
102
RTVSPost2010PropOp46
 70
     0
102
RTVSPost2010Prop47
 90
       50
102
RTVSPost2010PropOp47
 70
     0
102
RTVSPost2010Prop48
 90
       50
102
RTVSPost2010PropOp48
 70
     0
102
RTVSPost2010Prop49
280
     0
102
RTVSPost2010PropOp49
 70
     1
102
RTVSPost2010Prop50
 90
       50
102
RTVSPost2010PropOp50
 70
     0
102
RTVSPost2010Prop51ColorIndex
 90
      256
102
RTVSPost2010Prop51ColorRGB
 90
-16777216
102
RTVSPost2010PropOp51
 70
     0
102
RTVSPost2010Prop52
140
1.0
102
RTVSPost2010PropOp52
 70
     0
102
RTVSPost2010Prop53
 90
        2
102
RTVSPost2010PropOp53
 70
     0
102
RTVSPost2010Prop54
  1
strokes_ogs.tif
102
RTVSPost2010PropOp54
 70
     0
102
RTVSPost2010Prop55
280
     0
102
RTVSPost2010PropOp55
 70
     1
102
RTVSPost2010Prop56
140
1.0
102
RTVSPost2010PropOp56
 70
     0
102
RTVSPost2010Prop57
140
1.0
102
RTVSPost2010PropOp57
 70
     0
102
RTVSPropertyOp0
 70
     0
102
RTVSPropertyOp1
 70
     0
102
RTVSPropertyOp2
 70
     0
102
RTVSPropertyOp3
 70
     0
102
RTVSPropertyOp4
 70
     0
102
RTVSPropertyOp5
 70
     0
102
RTVSPropertyOp6
 70
     0
102
RTVSPropertyOp7
 70
     0
102
RTVSPropertyOp8
 70
     0
102
RTVSPropertyOp9
 70
     0
102
RTVSPropertyOp10
 70
     0
102
RTVSPropertyOp11
 70
     0
102
RTVSPropertyOp12
 70
     0
102
RTVSPropertyOp13
 70
     0
102
RTVSPropertyOp14
 70
     2
102
RTVSPropertyOp15
 70
     0
102
RTVSPropertyOp16
 70
     0
102
RTVSPropertyOp17
 70
     0
102
RTVSPropertyOp18
 70
     0
102
RTVSPropertyOp19
 70
     0
102
RTVSPropertyOp20
 70
     0
102
RTVSPropertyOp21
 70
     0
102
RTVSPropertyOp22
 70
     0
102
RTVSPropertyOp23
 70
     0
102
RTVSPropertyOp24
 70
     0
102
RTVSPropertyOp25
 70
     0
102
RTVSPropertyOp26
 70
     0
102
RTVSPropertyOp27
 70
     0
102
RTVSPropertyOp28
 70
     1
102
RTVSPropertyOp29
 70
     1
102
RTVSPropertyOp30
 70
     1
102
RTVSPropertyOp31
 70
     1
102
RTVSPropertyOp32
 70
     1
102
RTVSPropertyOp33
 70
     1
102
RTVSPropertyOp34
 70
     1
102
RTVSPropertyOp35
 70
     1
102
RTVSPropertyOp36
 70
     1
102
RTVSPropertyOp37
 70
     0
102
RTVSPropertyOp38
 70
     0
102
RTVSPropertyOp39
 70
     0
102
RTVSPropertyOp40
 70
     0
102
RTVSPropertyOp41
 70
     0
102
RTVSPropertyOp42
 70
     0
102
RTVSPropertyOp43
 70
     0
102
RTVSPropertyOp44
 70
     0
102
RTVSPropertyOp45
 70
     1
102
RTVSPropertyOp46
 70
     0
102
RTVSPropertyOp47
 70
     0
102
RTVSPropertyOp48
 70
     0
102
RTVSPropertyOp49
 70
     1
102
RTVSPropertyOp50
 70
     0
102
RTVSPropertyOp51
 70
     0
102
RTVSPropertyOp52
 70
     0
102
RTVSPropertyOp53
 70
     0
102
RTVSPropertyOp54
 70
     0
102
RTVSPropertyOp55
 70
     1
102
RTVSPropertyOp56
 70
     0
102
RTVSPropertyOp57
 70
     0
102
RTVSPropertyOp58
 70
     0
102
RTVSPropertyOp59
 70
     0
102
RTVSPropertyOp60
 70
     0
102
RTVSPropertyOp61
 70
     0
102
RTVSPropertyOp62
 70
     0
  0
XRECORD
  5
477
102
{ACAD_REACTORS
330
476
102
}
330
476
100
AcDbXrecord
280
     1
102
RTVSPost2010Prop28
280
     0
102
RTVSPost2010PropOp28
 70
     1
102
RTVSPost2010Prop29
280
     1
102
RTVSPost2010PropOp29
 70
     1
102
RTVSPost2010Prop30
280
     1
102
RTVSPost2010PropOp30
 70
     1
102
RTVSPost2010Prop31
280
     0
102
RTVSPost2010PropOp31
 70
     1
102
RTVSPost2010Prop32
280
     0
102
RTVSPost2010PropOp32
 70
     1
102
RTVSPost2010Prop33
280
     0
102
RTVSPost2010PropOp33
 70
     1
102
RTVSPost2010Prop34
280
     0
102
RTVSPost2010PropOp34
 70
     1
102
RTVSPost2010Prop35
280
     0
102
RTVSPost2010PropOp35
 70
     1
102
RTVSPost2010Prop36
280
     0
102
RTVSPost2010PropOp36
 70
     1
102
RTVSPost2010Prop37
 90
       50
102
RTVSPost2010PropOp37
 70
     1
102
RTVSPost2010Prop38
140
0.0
102
RTVSPost2010PropOp38
 70
     1
102
RTVSPost2010Prop39
140
1.0
102
RTVSPost2010PropOp39
 70
     1
102
RTVSPost2010Prop40
 90
        0
102
RTVSPost2010PropOp40
 70
     1
102
RTVSPost2010Prop41ColorIndex
 90
       18
102
RTVSPost2010Prop41ColorRGB
 90
        0
102
RTVSPost2010PropOp41
 70
     1
102
RTVSPost2010Prop42
 90
       50
102
RTVSPost2010PropOp42
 70
     1
102
RTVSPost2010Prop43
 90
        3
102
RTVSPost2010PropOp43
 70
     1
102
RTVSPost2010Prop44ColorIndex
 90
        5
102
RTVSPost2010Prop44ColorRGB
 90
      255
102
RTVSPost2010PropOp44
 70
     1
102
RTVSPost2010Prop45
280
     0
102
RTVSPost2010PropOp45
 70
     1
102
RTVSPost2010Prop46
 90
       50
102
RTVSPost2010PropOp46
 70
     1
102
RTVSPost2010Prop47
 90
       50
102
RTVSPost2010PropOp47
 70
     1
102
RTVSPost2010Prop48
 90
       50
102
RTVSPost2010PropOp48
 70
     1
102
RTVSPost2010Prop49
280
     0
102
RTVSPost2010PropOp49
 70
     1
102
RTVSPost2010Prop50
 90
       50
102
RTVSPost2010PropOp50
 70
     1
102
RTVSPost2010Prop51ColorIndex
 90
      256
102
RTVSPost2010Prop51ColorRGB
 90
-16777216
102
RTVSPost2010PropOp51
 70
     0
102
RTVSPost2010Prop52
140
1.0
102
RTVSPost2010PropOp52
 70
     0
102
RTVSPost2010Prop53
 90
        2
102
RTVSPost2010PropOp53
 70
     1
102
RTVSPost2010Prop54
  1
strokes_ogs.tif
102
RTVSPost2010PropOp54
 70
     1
102
RTVSPost2010Prop55
280
     0
102
RTVSPost2010PropOp55
 70
     1
102
RTVSPost2010Prop56
140
1.0
102
RTVSPost2010PropOp56
 70
     1
102
RTVSPost2010Prop57
140
1.0
102
RTVSPost2010PropOp57
 70
     1
102
RTVSPropertyOp0
 70
     1
102
RTVSPropertyOp1
 70
     1
102
RTVSPropertyOp2
 70
     1
102
RTVSPropertyOp3
 70
     1
102
RTVSPropertyOp4
 70
     1
102
RTVSPropertyOp5
 70
     1
102
RTVSPropertyOp6
 70
     1
102
RTVSPropertyOp7
 70
     1
102
RTVSPropertyOp8
 70
     1
102
RTVSPropertyOp9
 70
     1
102
RTVSPropertyOp10
 70
     1
102
RTVSPropertyOp11
 70
     1
102
RTVSPropertyOp12
 70
     1
102
RTVSPropertyOp13
 70
     1
102
RTVSPropertyOp14
 70
     1
102
RTVSPropertyOp15
 70
     1
102
RTVSPropertyOp16
 70
     1
102
RTVSPropertyOp17
 70
     1
102
RTVSPropertyOp18
 70
     1
102
RTVSPropertyOp19
 70
     1
102
RTVSPropertyOp20
 70
     1
102
RTVSPropertyOp21
 70
     1
102
RTVSPropertyOp22
 70
     1
102
RTVSPropertyOp23
 70
     1
102
RTVSPropertyOp24
 70
     1
102
RTVSPropertyOp25
 70
     1
102
RTVSPropertyOp26
 70
     1
102
RTVSPropertyOp27
 70
     1
102
RTVSPropertyOp28
 70
     1
102
RTVSPropertyOp29
 70
     1
102
RTVSPropertyOp30
 70
     1
102
RTVSPropertyOp31
 70
     1
102
RTVSPropertyOp32
 70
     1
102
RTVSPropertyOp33
 70
     1
102
RTVSPropertyOp34
 70
     1
102
RTVSPropertyOp35
 70
     1
102
RTVSPropertyOp36
 70
     1
102
RTVSPropertyOp37
 70
     1
102
RTVSPropertyOp38
 70
     1
102
RTVSPropertyOp39
 70
     1
102
RTVSPropertyOp40
 70
     1
102
RTVSPropertyOp41
 70
     1
102
RTVSPropertyOp42
 70
     1
102
RTVSPropertyOp43
 70
     1
102
RTVSPropertyOp44
 70
     1
102
RTVSPropertyOp45
 70
     1
102
RTVSPropertyOp46
 70
     1
102
RTVSPropertyOp47
 70
     1
102
RTVSPropertyOp48
 70
     1
102
RTVSPropertyOp49
 70
     1
102
RTVSPropertyOp50
 70
     1
102
RTVSPropertyOp51
 70
     0
102
RTVSPropertyOp52
 70
     0
102
RTVSPropertyOp53
 70
     1
102
RTVSPropertyOp54
 70
     1
102
RTVSPropertyOp55
 70
     1
102
RTVSPropertyOp56
 70
     1
102
RTVSPropertyOp57
 70
     1
102
RTVSPropertyOp58
 70
     1
102
RTVSPropertyOp59
 70
     1
102
RTVSPropertyOp60
 70
     1
102
RTVSPropertyOp61
 70
     1
102
RTVSPropertyOp62
 70
     1
  0
XRECORD
  5
45B
102
{ACAD_REACTORS
330
45A
102
}
330
45A
100
AcDbXrecord
280
     1
102
RTVSPost2010Prop28
280
     0
102
RTVSPost2010PropOp28
 70
     1
102
RTVSPost2010Prop29
280
     1
102
RTVSPost2010PropOp29
 70
     1
102
RTVSPost2010Prop30
280
     1
102
RTVSPost2010PropOp30
 70
     1
102
RTVSPost2010Prop31
280
     0
102
RTVSPost2010PropOp31
 70
     1
102
RTVSPost2010Prop32
280
     0
102
RTVSPost2010PropOp32
 70
     1
102
RTVSPost2010Prop33
280
     0
102
RTVSPost2010PropOp33
 70
     1
102
RTVSPost2010Prop34
280
     0
102
RTVSPost2010PropOp34
 70
     1
102
RTVSPost2010Prop35
280
     0
102
RTVSPost2010PropOp35
 70
     1
102
RTVSPost2010Prop36
280
     0
102
RTVSPost2010PropOp36
 70
     1
102
RTVSPost2010Prop37
 90
       50
102
RTVSPost2010PropOp37
 70
     1
102
RTVSPost2010Prop38
140
0.0
102
RTVSPost2010PropOp38
 70
     1
102
RTVSPost2010Prop39
140
1.0
102
RTVSPost2010PropOp39
 70
     1
102
RTVSPost2010Prop40
 90
        0
102
RTVSPost2010PropOp40
 70
     1
102
RTVSPost2010Prop41ColorIndex
 90
       18
102
RTVSPost2010Prop41ColorRGB
 90
        0
102
RTVSPost2010PropOp41
 70
     1
102
RTVSPost2010Prop42
 90
       50
102
RTVSPost2010PropOp42
 70
     1
102
RTVSPost2010Prop43
 90
        3
102
RTVSPost2010PropOp43
 70
     1
102
RTVSPost2010Prop44ColorIndex
 90
        5
102
RTVSPost2010Prop44ColorRGB
 90
      255
102
RTVSPost2010PropOp44
 70
     1
102
RTVSPost2010Prop45
280
     0
102
RTVSPost2010PropOp45
 70
     1
102
RTVSPost2010Prop46
 90
       50
102
RTVSPost2010PropOp46
 70
     1
102
RTVSPost2010Prop47
 90
       50
102
RTVSPost2010PropOp47
 70
     1
102
RTVSPost2010Prop48
 90
       50
102
RTVSPost2010PropOp48
 70
     1
102
RTVSPost2010Prop49
280
     0
102
RTVSPost2010PropOp49
 70
     1
102
RTVSPost2010Prop50
 90
       50
102
RTVSPost2010PropOp50
 70
     1
102
RTVSPost2010Prop51ColorIndex
 90
      256
102
RTVSPost2010Prop51ColorRGB
 90
-16777216
102
RTVSPost2010PropOp51
 70
     0
102
RTVSPost2010Prop52
140
1.0
102
RTVSPost2010PropOp52
 70
     0
102
RTVSPost2010Prop53
 90
        2
102
RTVSPost2010PropOp53
 70
     1
102
RTVSPost2010Prop54
  1
strokes_ogs.tif
102
RTVSPost2010PropOp54
 70
     1
102
RTVSPost2010Prop55
280
     0
102
RTVSPost2010PropOp55
 70
     1
102
RTVSPost2010Prop56
140
1.0
102
RTVSPost2010PropOp56
 70
     1
102
RTVSPost2010Prop57
140
1.0
102
RTVSPost2010PropOp57
 70
     1
102
RTVSPropertyOp0
 70
     1
102
RTVSPropertyOp1
 70
     1
102
RTVSPropertyOp2
 70
     1
102
RTVSPropertyOp3
 70
     1
102
RTVSPropertyOp4
 70
     1
102
RTVSPropertyOp5
 70
     1
102
RTVSPropertyOp6
 70
     1
102
RTVSPropertyOp7
 70
     1
102
RTVSPropertyOp8
 70
     1
102
RTVSPropertyOp9
 70
     1
102
RTVSPropertyOp10
 70
     1
102
RTVSPropertyOp11
 70
     1
102
RTVSPropertyOp12
 70
     1
102
RTVSPropertyOp13
 70
     1
102
RTVSPropertyOp14
 70
     1
102
RTVSPropertyOp15
 70
     1
102
RTVSPropertyOp16
 70
     1
102
RTVSPropertyOp17
 70
     1
102
RTVSPropertyOp18
 70
     1
102
RTVSPropertyOp19
 70
     1
102
RTVSPropertyOp20
 70
     1
102
RTVSPropertyOp21
 70
     1
102
RTVSPropertyOp22
 70
     1
102
RTVSPropertyOp23
 70
     1
102
RTVSPropertyOp24
 70
     1
102
RTVSPropertyOp25
 70
     1
102
RTVSPropertyOp26
 70
     1
102
RTVSPropertyOp27
 70
     1
102
RTVSPropertyOp28
 70
     1
102
RTVSPropertyOp29
 70
     1
102
RTVSPropertyOp30
 70
     1
102
RTVSPropertyOp31
 70
     1
102
RTVSPropertyOp32
 70
     1
102
RTVSPropertyOp33
 70
     1
102
RTVSPropertyOp34
 70
     1
102
RTVSPropertyOp35
 70
     1
102
RTVSPropertyOp36
 70
     1
102
RTVSPropertyOp37
 70
     1
102
RTVSPropertyOp38
 70
     1
102
RTVSPropertyOp39
 70
     1
102
RTVSPropertyOp40
 70
     1
102
RTVSPropertyOp41
 70
     1
102
RTVSPropertyOp42
 70
     1
102
RTVSPropertyOp43
 70
     1
102
RTVSPropertyOp44
 70
     1
102
RTVSPropertyOp45
 70
     1
102
RTVSPropertyOp46
 70
     1
102
RTVSPropertyOp47
 70
     1
102
RTVSPropertyOp48
 70
     1
102
RTVSPropertyOp49
 70
     1
102
RTVSPropertyOp50
 70
     1
102
RTVSPropertyOp51
 70
     0
102
RTVSPropertyOp52
 70
     0
102
RTVSPropertyOp53
 70
     1
102
RTVSPropertyOp54
 70
     1
102
RTVSPropertyOp55
 70
     1
102
RTVSPropertyOp56
 70
     1
102
RTVSPropertyOp57
 70
     1
102
RTVSPropertyOp58
 70
     1
102
RTVSPropertyOp59
 70
     1
102
RTVSPropertyOp60
 70
     1
102
RTVSPropertyOp61
 70
     1
102
RTVSPropertyOp62
 70
     1
  0
XRECORD
  5
45D
102
{ACAD_REACTORS
330
45C
102
}
330
45C
100
AcDbXrecord
280
     1
102
RTVSPost2010Prop28
280
     0
102
RTVSPost2010PropOp28
 70
     1
102
RTVSPost2010Prop29
280
     1
102
RTVSPost2010PropOp29
 70
     1
102
RTVSPost2010Prop30
280
     1
102
RTVSPost2010PropOp30
 70
     1
102
RTVSPost2010Prop31
280
     0
102
RTVSPost2010PropOp31
 70
     1
102
RTVSPost2010Prop32
280
     0
102
RTVSPost2010PropOp32
 70
     1
102
RTVSPost2010Prop33
280
     0
102
RTVSPost2010PropOp33
 70
     1
102
RTVSPost2010Prop34
280
     0
102
RTVSPost2010PropOp34
 70
     1
102
RTVSPost2010Prop35
280
     0
102
RTVSPost2010PropOp35
 70
     1
102
RTVSPost2010Prop36
280
     0
102
RTVSPost2010PropOp36
 70
     1
102
RTVSPost2010Prop37
 90
       50
102
RTVSPost2010PropOp37
 70
     1
102
RTVSPost2010Prop38
140
0.0
102
RTVSPost2010PropOp38
 70
     1
102
RTVSPost2010Prop39
140
1.0
102
RTVSPost2010PropOp39
 70
     1
102
RTVSPost2010Prop40
 90
        0
102
RTVSPost2010PropOp40
 70
     1
102
RTVSPost2010Prop41ColorIndex
 90
       18
102
RTVSPost2010Prop41ColorRGB
 90
        0
102
RTVSPost2010PropOp41
 70
     1
102
RTVSPost2010Prop42
 90
       50
102
RTVSPost2010PropOp42
 70
     1
102
RTVSPost2010Prop43
 90
        3
102
RTVSPost2010PropOp43
 70
     1
102
RTVSPost2010Prop44ColorIndex
 90
        5
102
RTVSPost2010Prop44ColorRGB
 90
      255
102
RTVSPost2010PropOp44
 70
     1
102
RTVSPost2010Prop45
280
     0
102
RTVSPost2010PropOp45
 70
     1
102
RTVSPost2010Prop46
 90
       50
102
RTVSPost2010PropOp46
 70
     1
102
RTVSPost2010Prop47
 90
       50
102
RTVSPost2010PropOp47
 70
     1
102
RTVSPost2010Prop48
 90
       50
102
RTVSPost2010PropOp48
 70
     1
102
RTVSPost2010Prop49
280
     0
102
RTVSPost2010PropOp49
 70
     1
102
RTVSPost2010Prop50
 90
       50
102
RTVSPost2010PropOp50
 70
     1
102
RTVSPost2010Prop51ColorIndex
 90
      256
102
RTVSPost2010Prop51ColorRGB
 90
-16777216
102
RTVSPost2010PropOp51
 70
     0
102
RTVSPost2010Prop52
140
1.0
102
RTVSPost2010PropOp52
 70
     0
102
RTVSPost2010Prop53
 90
        2
102
RTVSPost2010PropOp53
 70
     1
102
RTVSPost2010Prop54
  1
strokes_ogs.tif
102
RTVSPost2010PropOp54
 70
     1
102
RTVSPost2010Prop55
280
     0
102
RTVSPost2010PropOp55
 70
     1
102
RTVSPost2010Prop56
140
1.0
102
RTVSPost2010PropOp56
 70
     1
102
RTVSPost2010Prop57
140
1.0
102
RTVSPost2010PropOp57
 70
     1
102
RTVSPropertyOp0
 70
     1
102
RTVSPropertyOp1
 70
     1
102
RTVSPropertyOp2
 70
     1
102
RTVSPropertyOp3
 70
     1
102
RTVSPropertyOp4
 70
     1
102
RTVSPropertyOp5
 70
     1
102
RTVSPropertyOp6
 70
     1
102
RTVSPropertyOp7
 70
     1
102
RTVSPropertyOp8
 70
     1
102
RTVSPropertyOp9
 70
     1
102
RTVSPropertyOp10
 70
     1
102
RTVSPropertyOp11
 70
     1
102
RTVSPropertyOp12
 70
     1
102
RTVSPropertyOp13
 70
     1
102
RTVSPropertyOp14
 70
     1
102
RTVSPropertyOp15
 70
     1
102
RTVSPropertyOp16
 70
     1
102
RTVSPropertyOp17
 70
     1
102
RTVSPropertyOp18
 70
     1
102
RTVSPropertyOp19
 70
     1
102
RTVSPropertyOp20
 70
     1
102
RTVSPropertyOp21
 70
     1
102
RTVSPropertyOp22
 70
     1
102
RTVSPropertyOp23
 70
     1
102
RTVSPropertyOp24
 70
     1
102
RTVSPropertyOp25
 70
     1
102
RTVSPropertyOp26
 70
     1
102
RTVSPropertyOp27
 70
     1
102
RTVSPropertyOp28
 70
     1
102
RTVSPropertyOp29
 70
     1
102
RTVSPropertyOp30
 70
     1
102
RTVSPropertyOp31
 70
     1
102
RTVSPropertyOp32
 70
     1
102
RTVSPropertyOp33
 70
     1
102
RTVSPropertyOp34
 70
     1
102
RTVSPropertyOp35
 70
     1
102
RTVSPropertyOp36
 70
     1
102
RTVSPropertyOp37
 70
     1
102
RTVSPropertyOp38
 70
     1
102
RTVSPropertyOp39
 70
     1
102
RTVSPropertyOp40
 70
     1
102
RTVSPropertyOp41
 70
     1
102
RTVSPropertyOp42
 70
     1
102
RTVSPropertyOp43
 70
     1
102
RTVSPropertyOp44
 70
     1
102
RTVSPropertyOp45
 70
     1
102
RTVSPropertyOp46
 70
     1
102
RTVSPropertyOp47
 70
     1
102
RTVSPropertyOp48
 70
     1
102
RTVSPropertyOp49
 70
     1
102
RTVSPropertyOp50
 70
     1
102
RTVSPropertyOp51
 70
     0
102
RTVSPropertyOp52
 70
     0
102
RTVSPropertyOp53
 70
     1
102
RTVSPropertyOp54
 70
     1
102
RTVSPropertyOp55
 70
     1
102
RTVSPropertyOp56
 70
     1
102
RTVSPropertyOp57
 70
     1
102
RTVSPropertyOp58
 70
     1
102
RTVSPropertyOp59
 70
     1
102
RTVSPropertyOp60
 70
     1
102
RTVSPropertyOp61
 70
     1
102
RTVSPropertyOp62
 70
     1
  0
XRECORD
  5
45F
102
{ACAD_REACTORS
330
45E
102
}
330
45E
100
AcDbXrecord
280
     1
102
RTVSPost2010Prop28
280
     0
102
RTVSPost2010PropOp28
 70
     1
102
RTVSPost2010Prop29
280
     1
102
RTVSPost2010PropOp29
 70
     1
102
RTVSPost2010Prop30
280
     1
102
RTVSPost2010PropOp30
 70
     1
102
RTVSPost2010Prop31
280
     0
102
RTVSPost2010PropOp31
 70
     1
102
RTVSPost2010Prop32
280
     0
102
RTVSPost2010PropOp32
 70
     1
102
RTVSPost2010Prop33
280
     0
102
RTVSPost2010PropOp33
 70
     1
102
RTVSPost2010Prop34
280
     0
102
RTVSPost2010PropOp34
 70
     1
102
RTVSPost2010Prop35
280
     0
102
RTVSPost2010PropOp35
 70
     1
102
RTVSPost2010Prop36
280
     0
102
RTVSPost2010PropOp36
 70
     1
102
RTVSPost2010Prop37
 90
       50
102
RTVSPost2010PropOp37
 70
     1
102
RTVSPost2010Prop38
140
0.0
102
RTVSPost2010PropOp38
 70
     1
102
RTVSPost2010Prop39
140
1.0
102
RTVSPost2010PropOp39
 70
     1
102
RTVSPost2010Prop40
 90
        0
102
RTVSPost2010PropOp40
 70
     1
102
RTVSPost2010Prop41ColorIndex
 90
       18
102
RTVSPost2010Prop41ColorRGB
 90
        0
102
RTVSPost2010PropOp41
 70
     1
102
RTVSPost2010Prop42
 90
       50
102
RTVSPost2010PropOp42
 70
     1
102
RTVSPost2010Prop43
 90
        3
102
RTVSPost2010PropOp43
 70
     1
102
RTVSPost2010Prop44ColorIndex
 90
        5
102
RTVSPost2010Prop44ColorRGB
 90
      255
102
RTVSPost2010PropOp44
 70
     1
102
RTVSPost2010Prop45
280
     0
102
RTVSPost2010PropOp45
 70
     1
102
RTVSPost2010Prop46
 90
       50
102
RTVSPost2010PropOp46
 70
     1
102
RTVSPost2010Prop47
 90
       50
102
RTVSPost2010PropOp47
 70
     1
102
RTVSPost2010Prop48
 90
       50
102
RTVSPost2010PropOp48
 70
     1
102
RTVSPost2010Prop49
280
     0
102
RTVSPost2010PropOp49
 70
     1
102
RTVSPost2010Prop50
 90
       50
102
RTVSPost2010PropOp50
 70
     1
102
RTVSPost2010Prop51ColorIndex
 90
      256
102
RTVSPost2010Prop51ColorRGB
 90
-16777216
102
RTVSPost2010PropOp51
 70
     0
102
RTVSPost2010Prop52
140
1.0
102
RTVSPost2010PropOp52
 70
     0
102
RTVSPost2010Prop53
 90
        2
102
RTVSPost2010PropOp53
 70
     1
102
RTVSPost2010Prop54
  1
strokes_ogs.tif
102
RTVSPost2010PropOp54
 70
     1
102
RTVSPost2010Prop55
280
     0
102
RTVSPost2010PropOp55
 70
     1
102
RTVSPost2010Prop56
140
1.0
102
RTVSPost2010PropOp56
 70
     1
102
RTVSPost2010Prop57
140
1.0
102
RTVSPost2010PropOp57
 70
     1
102
RTVSPropertyOp0
 70
     1
102
RTVSPropertyOp1
 70
     1
102
RTVSPropertyOp2
 70
     1
102
RTVSPropertyOp3
 70
     1
102
RTVSPropertyOp4
 70
     1
102
RTVSPropertyOp5
 70
     1
102
RTVSPropertyOp6
 70
     1
102
RTVSPropertyOp7
 70
     1
102
RTVSPropertyOp8
 70
     1
102
RTVSPropertyOp9
 70
     1
102
RTVSPropertyOp10
 70
     1
102
RTVSPropertyOp11
 70
     1
102
RTVSPropertyOp12
 70
     1
102
RTVSPropertyOp13
 70
     1
102
RTVSPropertyOp14
 70
     1
102
RTVSPropertyOp15
 70
     1
102
RTVSPropertyOp16
 70
     1
102
RTVSPropertyOp17
 70
     1
102
RTVSPropertyOp18
 70
     1
102
RTVSPropertyOp19
 70
     1
102
RTVSPropertyOp20
 70
     1
102
RTVSPropertyOp21
 70
     1
102
RTVSPropertyOp22
 70
     1
102
RTVSPropertyOp23
 70
     1
102
RTVSPropertyOp24
 70
     1
102
RTVSPropertyOp25
 70
     1
102
RTVSPropertyOp26
 70
     1
102
RTVSPropertyOp27
 70
     1
102
RTVSPropertyOp28
 70
     1
102
RTVSPropertyOp29
 70
     1
102
RTVSPropertyOp30
 70
     1
102
RTVSPropertyOp31
 70
     1
102
RTVSPropertyOp32
 70
     1
102
RTVSPropertyOp33
 70
     1
102
RTVSPropertyOp34
 70
     1
102
RTVSPropertyOp35
 70
     1
102
RTVSPropertyOp36
 70
     1
102
RTVSPropertyOp37
 70
     1
102
RTVSPropertyOp38
 70
     1
102
RTVSPropertyOp39
 70
     1
102
RTVSPropertyOp40
 70
     1
102
RTVSPropertyOp41
 70
     1
102
RTVSPropertyOp42
 70
     1
102
RTVSPropertyOp43
 70
     1
102
RTVSPropertyOp44
 70
     1
102
RTVSPropertyOp45
 70
     1
102
RTVSPropertyOp46
 70
     1
102
RTVSPropertyOp47
 70
     1
102
RTVSPropertyOp48
 70
     1
102
RTVSPropertyOp49
 70
     1
102
RTVSPropertyOp50
 70
     1
102
RTVSPropertyOp51
 70
     0
102
RTVSPropertyOp52
 70
     0
102
RTVSPropertyOp53
 70
     1
102
RTVSPropertyOp54
 70
     1
102
RTVSPropertyOp55
 70
     1
102
RTVSPropertyOp56
 70
     1
102
RTVSPropertyOp57
 70
     1
102
RTVSPropertyOp58
 70
     1
102
RTVSPropertyOp59
 70
     1
102
RTVSPropertyOp60
 70
     1
102
RTVSPropertyOp61
 70
     1
102
RTVSPropertyOp62
 70
     1
  0
XRECORD
  5
461
102
{ACAD_REACTORS
330
460
102
}
330
460
100
AcDbXrecord
280
     1
102
RTVSPost2010Prop28
280
     0
102
RTVSPost2010PropOp28
 70
     1
102
RTVSPost2010Prop29
280
     1
102
RTVSPost2010PropOp29
 70
     1
102
RTVSPost2010Prop30
280
     1
102
RTVSPost2010PropOp30
 70
     1
102
RTVSPost2010Prop31
280
     0
102
RTVSPost2010PropOp31
 70
     1
102
RTVSPost2010Prop32
280
     0
102
RTVSPost2010PropOp32
 70
     1
102
RTVSPost2010Prop33
280
     0
102
RTVSPost2010PropOp33
 70
     1
102
RTVSPost2010Prop34
280
     0
102
RTVSPost2010PropOp34
 70
     1
102
RTVSPost2010Prop35
280
     0
102
RTVSPost2010PropOp35
 70
     1
102
RTVSPost2010Prop36
280
     0
102
RTVSPost2010PropOp36
 70
     1
102
RTVSPost2010Prop37
 90
       50
102
RTVSPost2010PropOp37
 70
     1
102
RTVSPost2010Prop38
140
0.0
102
RTVSPost2010PropOp38
 70
     1
102
RTVSPost2010Prop39
140
1.0
102
RTVSPost2010PropOp39
 70
     1
102
RTVSPost2010Prop40
 90
        0
102
RTVSPost2010PropOp40
 70
     1
102
RTVSPost2010Prop41ColorIndex
 90
       18
102
RTVSPost2010Prop41ColorRGB
 90
        0
102
RTVSPost2010PropOp41
 70
     1
102
RTVSPost2010Prop42
 90
       50
102
RTVSPost2010PropOp42
 70
     1
102
RTVSPost2010Prop43
 90
        3
102
RTVSPost2010PropOp43
 70
     1
102
RTVSPost2010Prop44ColorIndex
 90
        5
102
RTVSPost2010Prop44ColorRGB
 90
      255
102
RTVSPost2010PropOp44
 70
     1
102
RTVSPost2010Prop45
280
     0
102
RTVSPost2010PropOp45
 70
     1
102
RTVSPost2010Prop46
 90
       50
102
RTVSPost2010PropOp46
 70
     1
102
RTVSPost2010Prop47
 90
       50
102
RTVSPost2010PropOp47
 70
     1
102
RTVSPost2010Prop48
 90
       50
102
RTVSPost2010PropOp48
 70
     1
102
RTVSPost2010Prop49
280
     0
102
RTVSPost2010PropOp49
 70
     1
102
RTVSPost2010Prop50
 90
       50
102
RTVSPost2010PropOp50
 70
     1
102
RTVSPost2010Prop51ColorIndex
 90
      256
102
RTVSPost2010Prop51ColorRGB
 90
-16777216
102
RTVSPost2010PropOp51
 70
     0
102
RTVSPost2010Prop52
140
1.0
102
RTVSPost2010PropOp52
 70
     0
102
RTVSPost2010Prop53
 90
        2
102
RTVSPost2010PropOp53
 70
     1
102
RTVSPost2010Prop54
  1
strokes_ogs.tif
102
RTVSPost2010PropOp54
 70
     1
102
RTVSPost2010Prop55
280
     0
102
RTVSPost2010PropOp55
 70
     1
102
RTVSPost2010Prop56
140
1.0
102
RTVSPost2010PropOp56
 70
     1
102
RTVSPost2010Prop57
140
1.0
102
RTVSPost2010PropOp57
 70
     1
102
RTVSPropertyOp0
 70
     1
102
RTVSPropertyOp1
 70
     1
102
RTVSPropertyOp2
 70
     1
102
RTVSPropertyOp3
 70
     1
102
RTVSPropertyOp4
 70
     1
102
RTVSPropertyOp5
 70
     1
102
RTVSPropertyOp6
 70
     1
102
RTVSPropertyOp7
 70
     1
102
RTVSPropertyOp8
 70
     1
102
RTVSPropertyOp9
 70
     1
102
RTVSPropertyOp10
 70
     1
102
RTVSPropertyOp11
 70
     1
102
RTVSPropertyOp12
 70
     1
102
RTVSPropertyOp13
 70
     1
102
RTVSPropertyOp14
 70
     1
102
RTVSPropertyOp15
 70
     1
102
RTVSPropertyOp16
 70
     1
102
RTVSPropertyOp17
 70
     1
102
RTVSPropertyOp18
 70
     1
102
RTVSPropertyOp19
 70
     1
102
RTVSPropertyOp20
 70
     1
102
RTVSPropertyOp21
 70
     1
102
RTVSPropertyOp22
 70
     1
102
RTVSPropertyOp23
 70
     1
102
RTVSPropertyOp24
 70
     1
102
RTVSPropertyOp25
 70
     1
102
RTVSPropertyOp26
 70
     1
102
RTVSPropertyOp27
 70
     1
102
RTVSPropertyOp28
 70
     1
102
RTVSPropertyOp29
 70
     1
102
RTVSPropertyOp30
 70
     1
102
RTVSPropertyOp31
 70
     1
102
RTVSPropertyOp32
 70
     1
102
RTVSPropertyOp33
 70
     1
102
RTVSPropertyOp34
 70
     1
102
RTVSPropertyOp35
 70
     1
102
RTVSPropertyOp36
 70
     1
102
RTVSPropertyOp37
 70
     1
102
RTVSPropertyOp38
 70
     1
102
RTVSPropertyOp39
 70
     1
102
RTVSPropertyOp40
 70
     1
102
RTVSPropertyOp41
 70
     1
102
RTVSPropertyOp42
 70
     1
102
RTVSPropertyOp43
 70
     1
102
RTVSPropertyOp44
 70
     1
102
RTVSPropertyOp45
 70
     1
102
RTVSPropertyOp46
 70
     1
102
RTVSPropertyOp47
 70
     1
102
RTVSPropertyOp48
 70
     1
102
RTVSPropertyOp49
 70
     1
102
RTVSPropertyOp50
 70
     1
102
RTVSPropertyOp51
 70
     0
102
RTVSPropertyOp52
 70
     0
102
RTVSPropertyOp53
 70
     1
102
RTVSPropertyOp54
 70
     1
102
RTVSPropertyOp55
 70
     1
102
RTVSPropertyOp56
 70
     1
102
RTVSPropertyOp57
 70
     1
102
RTVSPropertyOp58
 70
     1
102
RTVSPropertyOp59
 70
     1
102
RTVSPropertyOp60
 70
     1
102
RTVSPropertyOp61
 70
     1
102
RTVSPropertyOp62
 70
     1
  0
XRECORD
  5
469
102
{ACAD_REACTORS
330
468
102
}
330
468
100
AcDbXrecord
280
     1
102
RTVSPost2010Prop28
280
     0
102
RTVSPost2010PropOp28
 70
     1
102
RTVSPost2010Prop29
280
     1
102
RTVSPost2010PropOp29
 70
     1
102
RTVSPost2010Prop30
280
     1
102
RTVSPost2010PropOp30
 70
     1
102
RTVSPost2010Prop31
280
     0
102
RTVSPost2010PropOp31
 70
     1
102
RTVSPost2010Prop32
280
     0
102
RTVSPost2010PropOp32
 70
     1
102
RTVSPost2010Prop33
280
     0
102
RTVSPost2010PropOp33
 70
     1
102
RTVSPost2010Prop34
280
     0
102
RTVSPost2010PropOp34
 70
     1
102
RTVSPost2010Prop35
280
     0
102
RTVSPost2010PropOp35
 70
     1
102
RTVSPost2010Prop36
280
     0
102
RTVSPost2010PropOp36
 70
     1
102
RTVSPost2010Prop37
 90
       50
102
RTVSPost2010PropOp37
 70
     1
102
RTVSPost2010Prop38
140
0.0
102
RTVSPost2010PropOp38
 70
     1
102
RTVSPost2010Prop39
140
1.0
102
RTVSPost2010PropOp39
 70
     1
102
RTVSPost2010Prop40
 90
        0
102
RTVSPost2010PropOp40
 70
     1
102
RTVSPost2010Prop41ColorIndex
 90
       18
102
RTVSPost2010Prop41ColorRGB
 90
        0
102
RTVSPost2010PropOp41
 70
     1
102
RTVSPost2010Prop42
 90
       50
102
RTVSPost2010PropOp42
 70
     1
102
RTVSPost2010Prop43
 90
        3
102
RTVSPost2010PropOp43
 70
     1
102
RTVSPost2010Prop44ColorIndex
 90
        5
102
RTVSPost2010Prop44ColorRGB
 90
      255
102
RTVSPost2010PropOp44
 70
     1
102
RTVSPost2010Prop45
280
     0
102
RTVSPost2010PropOp45
 70
     1
102
RTVSPost2010Prop46
 90
       50
102
RTVSPost2010PropOp46
 70
     1
102
RTVSPost2010Prop47
 90
       50
102
RTVSPost2010PropOp47
 70
     1
102
RTVSPost2010Prop48
 90
       50
102
RTVSPost2010PropOp48
 70
     1
102
RTVSPost2010Prop49
280
     0
102
RTVSPost2010PropOp49
 70
     1
102
RTVSPost2010Prop50
 90
       50
102
RTVSPost2010PropOp50
 70
     1
102
RTVSPost2010Prop51ColorIndex
 90
      256
102
RTVSPost2010Prop51ColorRGB
 90
-16777216
102
RTVSPost2010PropOp51
 70
     0
102
RTVSPost2010Prop52
140
1.0
102
RTVSPost2010PropOp52
 70
     0
102
RTVSPost2010Prop53
 90
        2
102
RTVSPost2010PropOp53
 70
     1
102
RTVSPost2010Prop54
  1
strokes_ogs.tif
102
RTVSPost2010PropOp54
 70
     1
102
RTVSPost2010Prop55
280
     0
102
RTVSPost2010PropOp55
 70
     1
102
RTVSPost2010Prop56
140
1.0
102
RTVSPost2010PropOp56
 70
     1
102
RTVSPost2010Prop57
140
1.0
102
RTVSPost2010PropOp57
 70
     1
102
RTVSPropertyOp0
 70
     1
102
RTVSPropertyOp1
 70
     1
102
RTVSPropertyOp2
 70
     1
102
RTVSPropertyOp3
 70
     1
102
RTVSPropertyOp4
 70
     1
102
RTVSPropertyOp5
 70
     1
102
RTVSPropertyOp6
 70
     1
102
RTVSPropertyOp7
 70
     1
102
RTVSPropertyOp8
 70
     1
102
RTVSPropertyOp9
 70
     1
102
RTVSPropertyOp10
 70
     1
102
RTVSPropertyOp11
 70
     1
102
RTVSPropertyOp12
 70
     1
102
RTVSPropertyOp13
 70
     1
102
RTVSPropertyOp14
 70
     1
102
RTVSPropertyOp15
 70
     1
102
RTVSPropertyOp16
 70
     1
102
RTVSPropertyOp17
 70
     1
102
RTVSPropertyOp18
 70
     1
102
RTVSPropertyOp19
 70
     1
102
RTVSPropertyOp20
 70
     1
102
RTVSPropertyOp21
 70
     1
102
RTVSPropertyOp22
 70
     1
102
RTVSPropertyOp23
 70
     1
102
RTVSPropertyOp24
 70
     1
102
RTVSPropertyOp25
 70
     1
102
RTVSPropertyOp26
 70
     1
102
RTVSPropertyOp27
 70
     1
102
RTVSPropertyOp28
 70
     1
102
RTVSPropertyOp29
 70
     1
102
RTVSPropertyOp30
 70
     1
102
RTVSPropertyOp31
 70
     1
102
RTVSPropertyOp32
 70
     1
102
RTVSPropertyOp33
 70
     1
102
RTVSPropertyOp34
 70
     1
102
RTVSPropertyOp35
 70
     1
102
RTVSPropertyOp36
 70
     1
102
RTVSPropertyOp37
 70
     1
102
RTVSPropertyOp38
 70
     1
102
RTVSPropertyOp39
 70
     1
102
RTVSPropertyOp40
 70
     1
102
RTVSPropertyOp41
 70
     1
102
RTVSPropertyOp42
 70
     1
102
RTVSPropertyOp43
 70
     1
102
RTVSPropertyOp44
 70
     1
102
RTVSPropertyOp45
 70
     1
102
RTVSPropertyOp46
 70
     1
102
RTVSPropertyOp47
 70
     1
102
RTVSPropertyOp48
 70
     1
102
RTVSPropertyOp49
 70
     1
102
RTVSPropertyOp50
 70
     1
102
RTVSPropertyOp51
 70
     0
102
RTVSPropertyOp52
 70
     0
102
RTVSPropertyOp53
 70
     1
102
RTVSPropertyOp54
 70
     1
102
RTVSPropertyOp55
 70
     1
102
RTVSPropertyOp56
 70
     1
102
RTVSPropertyOp57
 70
     1
102
RTVSPropertyOp58
 70
     1
102
RTVSPropertyOp59
 70
     1
102
RTVSPropertyOp60
 70
     1
102
RTVSPropertyOp61
 70
     1
102
RTVSPropertyOp62
 70
     1
  0
XRECORD
  5
485
102
{ACAD_REACTORS
330
484
102
}
330
484
100
AcDbXrecord
280
     1
102
RTVSPost2010Prop28
280
     0
102
RTVSPost2010PropOp28
 70
     1
102
RTVSPost2010Prop29
280
     1
102
RTVSPost2010PropOp29
 70
     1
102
RTVSPost2010Prop30
280
     1
102
RTVSPost2010PropOp30
 70
     1
102
RTVSPost2010Prop31
280
     0
102
RTVSPost2010PropOp31
 70
     1
102
RTVSPost2010Prop32
280
     0
102
RTVSPost2010PropOp32
 70
     1
102
RTVSPost2010Prop33
280
     0
102
RTVSPost2010PropOp33
 70
     1
102
RTVSPost2010Prop34
280
     0
102
RTVSPost2010PropOp34
 70
     1
102
RTVSPost2010Prop35
280
     0
102
RTVSPost2010PropOp35
 70
     1
102
RTVSPost2010Prop36
280
     0
102
RTVSPost2010PropOp36
 70
     1
102
RTVSPost2010Prop37
 90
       50
102
RTVSPost2010PropOp37
 70
     0
102
RTVSPost2010Prop38
140
0.0
102
RTVSPost2010PropOp38
 70
     0
102
RTVSPost2010Prop39
140
1.0
102
RTVSPost2010PropOp39
 70
     0
102
RTVSPost2010Prop40
 90
        0
102
RTVSPost2010PropOp40
 70
     0
102
RTVSPost2010Prop41ColorIndex
 90
       18
102
RTVSPost2010Prop41ColorRGB
 90
        0
102
RTVSPost2010PropOp41
 70
     0
102
RTVSPost2010Prop42
 90
       50
102
RTVSPost2010PropOp42
 70
     0
102
RTVSPost2010Prop43
 90
        3
102
RTVSPost2010PropOp43
 70
     0
102
RTVSPost2010Prop44ColorIndex
 90
        5
102
RTVSPost2010Prop44ColorRGB
 90
      255
102
RTVSPost2010PropOp44
 70
     0
102
RTVSPost2010Prop45
280
     0
102
RTVSPost2010PropOp45
 70
     1
102
RTVSPost2010Prop46
 90
       50
102
RTVSPost2010PropOp46
 70
     0
102
RTVSPost2010Prop47
 90
       50
102
RTVSPost2010PropOp47
 70
     0
102
RTVSPost2010Prop48
 90
       50
102
RTVSPost2010PropOp48
 70
     0
102
RTVSPost2010Prop49
280
     0
102
RTVSPost2010PropOp49
 70
     1
102
RTVSPost2010Prop50
 90
       50
102
RTVSPost2010PropOp50
 70
     0
102
RTVSPost2010Prop51ColorIndex
 90
      256
102
RTVSPost2010Prop51ColorRGB
 90
-16777216
102
RTVSPost2010PropOp51
 70
     0
102
RTVSPost2010Prop52
140
1.0
102
RTVSPost2010PropOp52
 70
     0
102
RTVSPost2010Prop53
 90
        2
102
RTVSPost2010PropOp53
 70
     0
102
RTVSPost2010Prop54
  1
strokes_ogs.tif
102
RTVSPost2010PropOp54
 70
     0
102
RTVSPost2010Prop55
280
     0
102
RTVSPost2010PropOp55
 70
     1
102
RTVSPost2010Prop56
140
1.0
102
RTVSPost2010PropOp56
 70
     0
102
RTVSPost2010Prop57
140
1.0
102
RTVSPost2010PropOp57
 70
     0
102
RTVSPropertyOp0
 70
     0
102
RTVSPropertyOp1
 70
     0
102
RTVSPropertyOp2
 70
     0
102
RTVSPropertyOp3
 70
     0
102
RTVSPropertyOp4
 70
     0
102
RTVSPropertyOp5
 70
     0
102
RTVSPropertyOp6
 70
     0
102
RTVSPropertyOp7
 70
     0
102
RTVSPropertyOp8
 70
     0
102
RTVSPropertyOp9
 70
     0
102
RTVSPropertyOp10
 70
     0
102
RTVSPropertyOp11
 70
     0
102
RTVSPropertyOp12
 70
     0
102
RTVSPropertyOp13
 70
     0
102
RTVSPropertyOp14
 70
     2
102
RTVSPropertyOp15
 70
     0
102
RTVSPropertyOp16
 70
     0
102
RTVSPropertyOp17
 70
     0
102
RTVSPropertyOp18
 70
     0
102
RTVSPropertyOp19
 70
     0
102
RTVSPropertyOp20
 70
     0
102
RTVSPropertyOp21
 70
     0
102
RTVSPropertyOp22
 70
     0
102
RTVSPropertyOp23
 70
     0
102
RTVSPropertyOp24
 70
     0
102
RTVSPropertyOp25
 70
     0
102
RTVSPropertyOp26
 70
     0
102
RTVSPropertyOp27
 70
     0
102
RTVSPropertyOp28
 70
     1
102
RTVSPropertyOp29
 70
     1
102
RTVSPropertyOp30
 70
     1
102
RTVSPropertyOp31
 70
     1
102
RTVSPropertyOp32
 70
     1
102
RTVSPropertyOp33
 70
     1
102
RTVSPropertyOp34
 70
     1
102
RTVSPropertyOp35
 70
     1
102
RTVSPropertyOp36
 70
     1
102
RTVSPropertyOp37
 70
     0
102
RTVSPropertyOp38
 70
     0
102
RTVSPropertyOp39
 70
     0
102
RTVSPropertyOp40
 70
     0
102
RTVSPropertyOp41
 70
     0
102
RTVSPropertyOp42
 70
     0
102
RTVSPropertyOp43
 70
     0
102
RTVSPropertyOp44
 70
     0
102
RTVSPropertyOp45
 70
     1
102
RTVSPropertyOp46
 70
     0
102
RTVSPropertyOp47
 70
     0
102
RTVSPropertyOp48
 70
     0
102
RTVSPropertyOp49
 70
     1
102
RTVSPropertyOp50
 70
     0
102
RTVSPropertyOp51
 70
     0
102
RTVSPropertyOp52
 70
     0
102
RTVSPropertyOp53
 70
     0
102
RTVSPropertyOp54
 70
     0
102
RTVSPropertyOp55
 70
     1
102
RTVSPropertyOp56
 70
     0
102
RTVSPropertyOp57
 70
     0
102
RTVSPropertyOp58
 70
     0
102
RTVSPropertyOp59
 70
     0
102
RTVSPropertyOp60
 70
     0
102
RTVSPropertyOp61
 70
     0
102
RTVSPropertyOp62
 70
     0
  0
XRECORD
  5
475
102
{ACAD_REACTORS
330
474
102
}
330
474
100
AcDbXrecord
280
     1
102
RTVSPost2010Prop28
280
     0
102
RTVSPost2010PropOp28
 70
     1
102
RTVSPost2010Prop29
280
     1
102
RTVSPost2010PropOp29
 70
     1
102
RTVSPost2010Prop30
280
     1
102
RTVSPost2010PropOp30
 70
     1
102
RTVSPost2010Prop31
280
     0
102
RTVSPost2010PropOp31
 70
     1
102
RTVSPost2010Prop32
280
     0
102
RTVSPost2010PropOp32
 70
     1
102
RTVSPost2010Prop33
280
     0
102
RTVSPost2010PropOp33
 70
     1
102
RTVSPost2010Prop34
280
     0
102
RTVSPost2010PropOp34
 70
     1
102
RTVSPost2010Prop35
280
     0
102
RTVSPost2010PropOp35
 70
     1
102
RTVSPost2010Prop36
280
     0
102
RTVSPost2010PropOp36
 70
     1
102
RTVSPost2010Prop37
 90
       50
102
RTVSPost2010PropOp37
 70
     1
102
RTVSPost2010Prop38
140
0.0
102
RTVSPost2010PropOp38
 70
     1
102
RTVSPost2010Prop39
140
1.0
102
RTVSPost2010PropOp39
 70
     1
102
RTVSPost2010Prop40
 90
        0
102
RTVSPost2010PropOp40
 70
     1
102
RTVSPost2010Prop41ColorIndex
 90
       18
102
RTVSPost2010Prop41ColorRGB
 90
        0
102
RTVSPost2010PropOp41
 70
     1
102
RTVSPost2010Prop42
 90
       50
102
RTVSPost2010PropOp42
 70
     1
102
RTVSPost2010Prop43
 90
        3
102
RTVSPost2010PropOp43
 70
     1
102
RTVSPost2010Prop44ColorIndex
 90
        5
102
RTVSPost2010Prop44ColorRGB
 90
      255
102
RTVSPost2010PropOp44
 70
     1
102
RTVSPost2010Prop45
280
     0
102
RTVSPost2010PropOp45
 70
     1
102
RTVSPost2010Prop46
 90
       50
102
RTVSPost2010PropOp46
 70
     1
102
RTVSPost2010Prop47
 90
       50
102
RTVSPost2010PropOp47
 70
     1
102
RTVSPost2010Prop48
 90
       50
102
RTVSPost2010PropOp48
 70
     1
102
RTVSPost2010Prop49
280
     0
102
RTVSPost2010PropOp49
 70
     1
102
RTVSPost2010Prop50
 90
       50
102
RTVSPost2010PropOp50
 70
     1
102
RTVSPost2010Prop51ColorIndex
 90
      256
102
RTVSPost2010Prop51ColorRGB
 90
-16777216
102
RTVSPost2010PropOp51
 70
     0
102
RTVSPost2010Prop52
140
1.0
102
RTVSPost2010PropOp52
 70
     0
102
RTVSPost2010Prop53
 90
        2
102
RTVSPost2010PropOp53
 70
     1
102
RTVSPost2010Prop54
  1
strokes_ogs.tif
102
RTVSPost2010PropOp54
 70
     1
102
RTVSPost2010Prop55
280
     0
102
RTVSPost2010PropOp55
 70
     1
102
RTVSPost2010Prop56
140
1.0
102
RTVSPost2010PropOp56
 70
     1
102
RTVSPost2010Prop57
140
1.0
102
RTVSPost2010PropOp57
 70
     1
102
RTVSPropertyOp0
 70
     1
102
RTVSPropertyOp1
 70
     1
102
RTVSPropertyOp2
 70
     1
102
RTVSPropertyOp3
 70
     1
102
RTVSPropertyOp4
 70
     1
102
RTVSPropertyOp5
 70
     1
102
RTVSPropertyOp6
 70
     1
102
RTVSPropertyOp7
 70
     1
102
RTVSPropertyOp8
 70
     1
102
RTVSPropertyOp9
 70
     1
102
RTVSPropertyOp10
 70
     1
102
RTVSPropertyOp11
 70
     1
102
RTVSPropertyOp12
 70
     1
102
RTVSPropertyOp13
 70
     1
102
RTVSPropertyOp14
 70
     1
102
RTVSPropertyOp15
 70
     1
102
RTVSPropertyOp16
 70
     1
102
RTVSPropertyOp17
 70
     1
102
RTVSPropertyOp18
 70
     1
102
RTVSPropertyOp19
 70
     1
102
RTVSPropertyOp20
 70
     1
102
RTVSPropertyOp21
 70
     1
102
RTVSPropertyOp22
 70
     1
102
RTVSPropertyOp23
 70
     1
102
RTVSPropertyOp24
 70
     1
102
RTVSPropertyOp25
 70
     1
102
RTVSPropertyOp26
 70
     1
102
RTVSPropertyOp27
 70
     1
102
RTVSPropertyOp28
 70
     1
102
RTVSPropertyOp29
 70
     1
102
RTVSPropertyOp30
 70
     1
102
RTVSPropertyOp31
 70
     1
102
RTVSPropertyOp32
 70
     1
102
RTVSPropertyOp33
 70
     1
102
RTVSPropertyOp34
 70
     1
102
RTVSPropertyOp35
 70
     1
102
RTVSPropertyOp36
 70
     1
102
RTVSPropertyOp37
 70
     1
102
RTVSPropertyOp38
 70
     1
102
RTVSPropertyOp39
 70
     1
102
RTVSPropertyOp40
 70
     1
102
RTVSPropertyOp41
 70
     1
102
RTVSPropertyOp42
 70
     1
102
RTVSPropertyOp43
 70
     1
102
RTVSPropertyOp44
 70
     1
102
RTVSPropertyOp45
 70
     1
102
RTVSPropertyOp46
 70
     1
102
RTVSPropertyOp47
 70
     1
102
RTVSPropertyOp48
 70
     1
102
RTVSPropertyOp49
 70
     1
102
RTVSPropertyOp50
 70
     1
102
RTVSPropertyOp51
 70
     0
102
RTVSPropertyOp52
 70
     0
102
RTVSPropertyOp53
 70
     1
102
RTVSPropertyOp54
 70
     1
102
RTVSPropertyOp55
 70
     1
102
RTVSPropertyOp56
 70
     1
102
RTVSPropertyOp57
 70
     1
102
RTVSPropertyOp58
 70
     1
102
RTVSPropertyOp59
 70
     1
102
RTVSPropertyOp60
 70
     1
102
RTVSPropertyOp61
 70
     1
102
RTVSPropertyOp62
 70
     1
  0
XRECORD
  5
487
102
{ACAD_REACTORS
330
486
102
}
330
486
100
AcDbXrecord
280
     1
102
RTVSPost2010Prop28
280
     0
102
RTVSPost2010PropOp28
 70
     1
102
RTVSPost2010Prop29
280
     1
102
RTVSPost2010PropOp29
 70
     1
102
RTVSPost2010Prop30
280
     1
102
RTVSPost2010PropOp30
 70
     1
102
RTVSPost2010Prop31
280
     0
102
RTVSPost2010PropOp31
 70
     1
102
RTVSPost2010Prop32
280
     0
102
RTVSPost2010PropOp32
 70
     1
102
RTVSPost2010Prop33
280
     0
102
RTVSPost2010PropOp33
 70
     1
102
RTVSPost2010Prop34
280
     0
102
RTVSPost2010PropOp34
 70
     1
102
RTVSPost2010Prop35
280
     0
102
RTVSPost2010PropOp35
 70
     1
102
RTVSPost2010Prop36
280
     0
102
RTVSPost2010PropOp36
 70
     1
102
RTVSPost2010Prop37
 90
       50
102
RTVSPost2010PropOp37
 70
     0
102
RTVSPost2010Prop38
140
0.0
102
RTVSPost2010PropOp38
 70
     0
102
RTVSPost2010Prop39
140
1.0
102
RTVSPost2010PropOp39
 70
     0
102
RTVSPost2010Prop40
 90
        0
102
RTVSPost2010PropOp40
 70
     0
102
RTVSPost2010Prop41ColorIndex
 90
       18
102
RTVSPost2010Prop41ColorRGB
 90
        0
102
RTVSPost2010PropOp41
 70
     0
102
RTVSPost2010Prop42
 90
       50
102
RTVSPost2010PropOp42
 70
     0
102
RTVSPost2010Prop43
 90
        3
102
RTVSPost2010PropOp43
 70
     0
102
RTVSPost2010Prop44ColorIndex
 90
        5
102
RTVSPost2010Prop44ColorRGB
 90
      255
102
RTVSPost2010PropOp44
 70
     0
102
RTVSPost2010Prop45
280
     0
102
RTVSPost2010PropOp45
 70
     1
102
RTVSPost2010Prop46
 90
       50
102
RTVSPost2010PropOp46
 70
     0
102
RTVSPost2010Prop47
 90
       50
102
RTVSPost2010PropOp47
 70
     0
102
RTVSPost2010Prop48
 90
       50
102
RTVSPost2010PropOp48
 70
     0
102
RTVSPost2010Prop49
280
     0
102
RTVSPost2010PropOp49
 70
     1
102
RTVSPost2010Prop50
 90
       50
102
RTVSPost2010PropOp50
 70
     0
102
RTVSPost2010Prop51ColorIndex
 90
      256
102
RTVSPost2010Prop51ColorRGB
 90
-16777216
102
RTVSPost2010PropOp51
 70
     0
102
RTVSPost2010Prop52
140
1.0
102
RTVSPost2010PropOp52
 70
     0
102
RTVSPost2010Prop53
 90
        2
102
RTVSPost2010PropOp53
 70
     0
102
RTVSPost2010Prop54
  1
strokes_ogs.tif
102
RTVSPost2010PropOp54
 70
     0
102
RTVSPost2010Prop55
280
     0
102
RTVSPost2010PropOp55
 70
     1
102
RTVSPost2010Prop56
140
1.0
102
RTVSPost2010PropOp56
 70
     0
102
RTVSPost2010Prop57
140
1.0
102
RTVSPost2010PropOp57
 70
     0
102
RTVSPropertyOp0
 70
     0
102
RTVSPropertyOp1
 70
     0
102
RTVSPropertyOp2
 70
     0
102
RTVSPropertyOp3
 70
     0
102
RTVSPropertyOp4
 70
     0
102
RTVSPropertyOp5
 70
     0
102
RTVSPropertyOp6
 70
     0
102
RTVSPropertyOp7
 70
     0
102
RTVSPropertyOp8
 70
     0
102
RTVSPropertyOp9
 70
     0
102
RTVSPropertyOp10
 70
     0
102
RTVSPropertyOp11
 70
     0
102
RTVSPropertyOp12
 70
     0
102
RTVSPropertyOp13
 70
     0
102
RTVSPropertyOp14
 70
     2
102
RTVSPropertyOp15
 70
     0
102
RTVSPropertyOp16
 70
     0
102
RTVSPropertyOp17
 70
     0
102
RTVSPropertyOp18
 70
     0
102
RTVSPropertyOp19
 70
     0
102
RTVSPropertyOp20
 70
     0
102
RTVSPropertyOp21
 70
     0
102
RTVSPropertyOp22
 70
     0
102
RTVSPropertyOp23
 70
     0
102
RTVSPropertyOp24
 70
     0
102
RTVSPropertyOp25
 70
     0
102
RTVSPropertyOp26
 70
     0
102
RTVSPropertyOp27
 70
     0
102
RTVSPropertyOp28
 70
     1
102
RTVSPropertyOp29
 70
     1
102
RTVSPropertyOp30
 70
     1
102
RTVSPropertyOp31
 70
     1
102
RTVSPropertyOp32
 70
     1
102
RTVSPropertyOp33
 70
     1
102
RTVSPropertyOp34
 70
     1
102
RTVSPropertyOp35
 70
     1
102
RTVSPropertyOp36
 70
     1
102
RTVSPropertyOp37
 70
     0
102
RTVSPropertyOp38
 70
     0
102
RTVSPropertyOp39
 70
     0
102
RTVSPropertyOp40
 70
     0
102
RTVSPropertyOp41
 70
     0
102
RTVSPropertyOp42
 70
     0
102
RTVSPropertyOp43
 70
     0
102
RTVSPropertyOp44
 70
     0
102
RTVSPropertyOp45
 70
     1
102
RTVSPropertyOp46
 70
     0
102
RTVSPropertyOp47
 70
     0
102
RTVSPropertyOp48
 70
     0
102
RTVSPropertyOp49
 70
     1
102
RTVSPropertyOp50
 70
     0
102
RTVSPropertyOp51
 70
     0
102
RTVSPropertyOp52
 70
     0
102
RTVSPropertyOp53
 70
     0
102
RTVSPropertyOp54
 70
     0
102
RTVSPropertyOp55
 70
     1
102
RTVSPropertyOp56
 70
     0
102
RTVSPropertyOp57
 70
     0
102
RTVSPropertyOp58
 70
     0
102
RTVSPropertyOp59
 70
     0
102
RTVSPropertyOp60
 70
     0
102
RTVSPropertyOp61
 70
     0
102
RTVSPropertyOp62
 70
     0
  0
XRECORD
  5
46D
102
{ACAD_REACTORS
330
46C
102
}
330
46C
100
AcDbXrecord
280
     1
102
RTVSPost2010Prop28
280
     0
102
RTVSPost2010PropOp28
 70
     1
102
RTVSPost2010Prop29
280
     1
102
RTVSPost2010PropOp29
 70
     1
102
RTVSPost2010Prop30
280
     1
102
RTVSPost2010PropOp30
 70
     1
102
RTVSPost2010Prop31
280
     0
102
RTVSPost2010PropOp31
 70
     1
102
RTVSPost2010Prop32
280
     0
102
RTVSPost2010PropOp32
 70
     1
102
RTVSPost2010Prop33
280
     0
102
RTVSPost2010PropOp33
 70
     1
102
RTVSPost2010Prop34
280
     0
102
RTVSPost2010PropOp34
 70
     1
102
RTVSPost2010Prop35
280
     0
102
RTVSPost2010PropOp35
 70
     1
102
RTVSPost2010Prop36
280
     0
102
RTVSPost2010PropOp36
 70
     1
102
RTVSPost2010Prop37
 90
       50
102
RTVSPost2010PropOp37
 70
     1
102
RTVSPost2010Prop38
140
0.0
102
RTVSPost2010PropOp38
 70
     1
102
RTVSPost2010Prop39
140
1.0
102
RTVSPost2010PropOp39
 70
     1
102
RTVSPost2010Prop40
 90
        0
102
RTVSPost2010PropOp40
 70
     1
102
RTVSPost2010Prop41ColorIndex
 90
       18
102
RTVSPost2010Prop41ColorRGB
 90
        0
102
RTVSPost2010PropOp41
 70
     1
102
RTVSPost2010Prop42
 90
       50
102
RTVSPost2010PropOp42
 70
     1
102
RTVSPost2010Prop43
 90
        3
102
RTVSPost2010PropOp43
 70
     1
102
RTVSPost2010Prop44ColorIndex
 90
        5
102
RTVSPost2010Prop44ColorRGB
 90
      255
102
RTVSPost2010PropOp44
 70
     1
102
RTVSPost2010Prop45
280
     0
102
RTVSPost2010PropOp45
 70
     1
102
RTVSPost2010Prop46
 90
       50
102
RTVSPost2010PropOp46
 70
     1
102
RTVSPost2010Prop47
 90
       50
102
RTVSPost2010PropOp47
 70
     1
102
RTVSPost2010Prop48
 90
       50
102
RTVSPost2010PropOp48
 70
     1
102
RTVSPost2010Prop49
280
     0
102
RTVSPost2010PropOp49
 70
     1
102
RTVSPost2010Prop50
 90
       50
102
RTVSPost2010PropOp50
 70
     1
102
RTVSPost2010Prop51ColorIndex
 90
      256
102
RTVSPost2010Prop51ColorRGB
 90
-16777216
102
RTVSPost2010PropOp51
 70
     0
102
RTVSPost2010Prop52
140
1.0
102
RTVSPost2010PropOp52
 70
     0
102
RTVSPost2010Prop53
 90
        2
102
RTVSPost2010PropOp53
 70
     1
102
RTVSPost2010Prop54
  1
strokes_ogs.tif
102
RTVSPost2010PropOp54
 70
     1
102
RTVSPost2010Prop55
280
     0
102
RTVSPost2010PropOp55
 70
     1
102
RTVSPost2010Prop56
140
1.0
102
RTVSPost2010PropOp56
 70
     1
102
RTVSPost2010Prop57
140
1.0
102
RTVSPost2010PropOp57
 70
     1
102
RTVSPropertyOp0
 70
     1
102
RTVSPropertyOp1
 70
     1
102
RTVSPropertyOp2
 70
     1
102
RTVSPropertyOp3
 70
     1
102
RTVSPropertyOp4
 70
     1
102
RTVSPropertyOp5
 70
     1
102
RTVSPropertyOp6
 70
     1
102
RTVSPropertyOp7
 70
     1
102
RTVSPropertyOp8
 70
     1
102
RTVSPropertyOp9
 70
     1
102
RTVSPropertyOp10
 70
     1
102
RTVSPropertyOp11
 70
     1
102
RTVSPropertyOp12
 70
     1
102
RTVSPropertyOp13
 70
     1
102
RTVSPropertyOp14
 70
     1
102
RTVSPropertyOp15
 70
     1
102
RTVSPropertyOp16
 70
     1
102
RTVSPropertyOp17
 70
     1
102
RTVSPropertyOp18
 70
     1
102
RTVSPropertyOp19
 70
     1
102
RTVSPropertyOp20
 70
     1
102
RTVSPropertyOp21
 70
     1
102
RTVSPropertyOp22
 70
     1
102
RTVSPropertyOp23
 70
     1
102
RTVSPropertyOp24
 70
     1
102
RTVSPropertyOp25
 70
     1
102
RTVSPropertyOp26
 70
     1
102
RTVSPropertyOp27
 70
     1
102
RTVSPropertyOp28
 70
     1
102
RTVSPropertyOp29
 70
     1
102
RTVSPropertyOp30
 70
     1
102
RTVSPropertyOp31
 70
     1
102
RTVSPropertyOp32
 70
     1
102
RTVSPropertyOp33
 70
     1
102
RTVSPropertyOp34
 70
     1
102
RTVSPropertyOp35
 70
     1
102
RTVSPropertyOp36
 70
     1
102
RTVSPropertyOp37
 70
     1
102
RTVSPropertyOp38
 70
     1
102
RTVSPropertyOp39
 70
     1
102
RTVSPropertyOp40
 70
     1
102
RTVSPropertyOp41
 70
     1
102
RTVSPropertyOp42
 70
     1
102
RTVSPropertyOp43
 70
     1
102
RTVSPropertyOp44
 70
     1
102
RTVSPropertyOp45
 70
     1
102
RTVSPropertyOp46
 70
     1
102
RTVSPropertyOp47
 70
     1
102
RTVSPropertyOp48
 70
     1
102
RTVSPropertyOp49
 70
     1
102
RTVSPropertyOp50
 70
     1
102
RTVSPropertyOp51
 70
     0
102
RTVSPropertyOp52
 70
     0
102
RTVSPropertyOp53
 70
     1
102
RTVSPropertyOp54
 70
     1
102
RTVSPropertyOp55
 70
     1
102
RTVSPropertyOp56
 70
     1
102
RTVSPropertyOp57
 70
     1
102
RTVSPropertyOp58
 70
     1
102
RTVSPropertyOp59
 70
     1
102
RTVSPropertyOp60
 70
     1
102
RTVSPropertyOp61
 70
     1
102
RTVSPropertyOp62
 70
     1
  0
XRECORD
  5
483
102
{ACAD_REACTORS
330
482
102
}
330
482
100
AcDbXrecord
280
     1
102
RTVSPost2010Prop28
280
     0
102
RTVSPost2010PropOp28
 70
     1
102
RTVSPost2010Prop29
280
     1
102
RTVSPost2010PropOp29
 70
     1
102
RTVSPost2010Prop30
280
     1
102
RTVSPost2010PropOp30
 70
     1
102
RTVSPost2010Prop31
280
     0
102
RTVSPost2010PropOp31
 70
     1
102
RTVSPost2010Prop32
280
     0
102
RTVSPost2010PropOp32
 70
     1
102
RTVSPost2010Prop33
280
     0
102
RTVSPost2010PropOp33
 70
     1
102
RTVSPost2010Prop34
280
     0
102
RTVSPost2010PropOp34
 70
     1
102
RTVSPost2010Prop35
280
     0
102
RTVSPost2010PropOp35
 70
     1
102
RTVSPost2010Prop36
280
     0
102
RTVSPost2010PropOp36
 70
     1
102
RTVSPost2010Prop37
 90
       50
102
RTVSPost2010PropOp37
 70
     1
102
RTVSPost2010Prop38
140
0.0
102
RTVSPost2010PropOp38
 70
     1
102
RTVSPost2010Prop39
140
1.0
102
RTVSPost2010PropOp39
 70
     1
102
RTVSPost2010Prop40
 90
        0
102
RTVSPost2010PropOp40
 70
     1
102
RTVSPost2010Prop41ColorIndex
 90
       18
102
RTVSPost2010Prop41ColorRGB
 90
        0
102
RTVSPost2010PropOp41
 70
     1
102
RTVSPost2010Prop42
 90
       50
102
RTVSPost2010PropOp42
 70
     1
102
RTVSPost2010Prop43
 90
        3
102
RTVSPost2010PropOp43
 70
     1
102
RTVSPost2010Prop44ColorIndex
 90
        5
102
RTVSPost2010Prop44ColorRGB
 90
      255
102
RTVSPost2010PropOp44
 70
     1
102
RTVSPost2010Prop45
280
     0
102
RTVSPost2010PropOp45
 70
     1
102
RTVSPost2010Prop46
 90
       50
102
RTVSPost2010PropOp46
 70
     1
102
RTVSPost2010Prop47
 90
       50
102
RTVSPost2010PropOp47
 70
     1
102
RTVSPost2010Prop48
 90
       50
102
RTVSPost2010PropOp48
 70
     1
102
RTVSPost2010Prop49
280
     0
102
RTVSPost2010PropOp49
 70
     1
102
RTVSPost2010Prop50
 90
       50
102
RTVSPost2010PropOp50
 70
     1
102
RTVSPost2010Prop51ColorIndex
 90
      256
102
RTVSPost2010Prop51ColorRGB
 90
-16777216
102
RTVSPost2010PropOp51
 70
     0
102
RTVSPost2010Prop52
140
1.0
102
RTVSPost2010PropOp52
 70
     0
102
RTVSPost2010Prop53
 90
        2
102
RTVSPost2010PropOp53
 70
     1
102
RTVSPost2010Prop54
  1
strokes_ogs.tif
102
RTVSPost2010PropOp54
 70
     1
102
RTVSPost2010Prop55
280
     0
102
RTVSPost2010PropOp55
 70
     1
102
RTVSPost2010Prop56
140
1.0
102
RTVSPost2010PropOp56
 70
     1
102
RTVSPost2010Prop57
140
1.0
102
RTVSPost2010PropOp57
 70
     1
102
RTVSPropertyOp0
 70
     1
102
RTVSPropertyOp1
 70
     1
102
RTVSPropertyOp2
 70
     1
102
RTVSPropertyOp3
 70
     1
102
RTVSPropertyOp4
 70
     1
102
RTVSPropertyOp5
 70
     1
102
RTVSPropertyOp6
 70
     1
102
RTVSPropertyOp7
 70
     1
102
RTVSPropertyOp8
 70
     1
102
RTVSPropertyOp9
 70
     1
102
RTVSPropertyOp10
 70
     1
102
RTVSPropertyOp11
 70
     1
102
RTVSPropertyOp12
 70
     1
102
RTVSPropertyOp13
 70
     1
102
RTVSPropertyOp14
 70
     1
102
RTVSPropertyOp15
 70
     1
102
RTVSPropertyOp16
 70
     1
102
RTVSPropertyOp17
 70
     1
102
RTVSPropertyOp18
 70
     1
102
RTVSPropertyOp19
 70
     1
102
RTVSPropertyOp20
 70
     1
102
RTVSPropertyOp21
 70
     1
102
RTVSPropertyOp22
 70
     1
102
RTVSPropertyOp23
 70
     1
102
RTVSPropertyOp24
 70
     1
102
RTVSPropertyOp25
 70
     1
102
RTVSPropertyOp26
 70
     1
102
RTVSPropertyOp27
 70
     1
102
RTVSPropertyOp28
 70
     1
102
RTVSPropertyOp29
 70
     1
102
RTVSPropertyOp30
 70
     1
102
RTVSPropertyOp31
 70
     1
102
RTVSPropertyOp32
 70
     1
102
RTVSPropertyOp33
 70
     1
102
RTVSPropertyOp34
 70
     1
102
RTVSPropertyOp35
 70
     1
102
RTVSPropertyOp36
 70
     1
102
RTVSPropertyOp37
 70
     1
102
RTVSPropertyOp38
 70
     1
102
RTVSPropertyOp39
 70
     1
102
RTVSPropertyOp40
 70
     1
102
RTVSPropertyOp41
 70
     1
102
RTVSPropertyOp42
 70
     1
102
RTVSPropertyOp43
 70
     1
102
RTVSPropertyOp44
 70
     1
102
RTVSPropertyOp45
 70
     1
102
RTVSPropertyOp46
 70
     1
102
RTVSPropertyOp47
 70
     1
102
RTVSPropertyOp48
 70
     1
102
RTVSPropertyOp49
 70
     1
102
RTVSPropertyOp50
 70
     1
102
RTVSPropertyOp51
 70
     0
102
RTVSPropertyOp52
 70
     0
102
RTVSPropertyOp53
 70
     1
102
RTVSPropertyOp54
 70
     1
102
RTVSPropertyOp55
 70
     1
102
RTVSPropertyOp56
 70
     1
102
RTVSPropertyOp57
 70
     1
102
RTVSPropertyOp58
 70
     1
102
RTVSPropertyOp59
 70
     1
102
RTVSPropertyOp60
 70
     1
102
RTVSPropertyOp61
 70
     1
102
RTVSPropertyOp62
 70
     1
  0
XRECORD
  5
481
102
{ACAD_REACTORS
330
480
102
}
330
480
100
AcDbXrecord
280
     1
102
RTVSPost2010Prop28
280
     0
102
RTVSPost2010PropOp28
 70
     1
102
RTVSPost2010Prop29
280
     1
102
RTVSPost2010PropOp29
 70
     1
102
RTVSPost2010Prop30
280
     1
102
RTVSPost2010PropOp30
 70
     1
102
RTVSPost2010Prop31
280
     0
102
RTVSPost2010PropOp31
 70
     1
102
RTVSPost2010Prop32
280
     0
102
RTVSPost2010PropOp32
 70
     1
102
RTVSPost2010Prop33
280
     0
102
RTVSPost2010PropOp33
 70
     1
102
RTVSPost2010Prop34
280
     0
102
RTVSPost2010PropOp34
 70
     1
102
RTVSPost2010Prop35
280
     0
102
RTVSPost2010PropOp35
 70
     1
102
RTVSPost2010Prop36
280
     0
102
RTVSPost2010PropOp36
 70
     1
102
RTVSPost2010Prop37
 90
       50
102
RTVSPost2010PropOp37
 70
     1
102
RTVSPost2010Prop38
140
0.0
102
RTVSPost2010PropOp38
 70
     1
102
RTVSPost2010Prop39
140
1.0
102
RTVSPost2010PropOp39
 70
     1
102
RTVSPost2010Prop40
 90
        0
102
RTVSPost2010PropOp40
 70
     1
102
RTVSPost2010Prop41ColorIndex
 90
       18
102
RTVSPost2010Prop41ColorRGB
 90
        0
102
RTVSPost2010PropOp41
 70
     1
102
RTVSPost2010Prop42
 90
       50
102
RTVSPost2010PropOp42
 70
     1
102
RTVSPost2010Prop43
 90
        3
102
RTVSPost2010PropOp43
 70
     1
102
RTVSPost2010Prop44ColorIndex
 90
        5
102
RTVSPost2010Prop44ColorRGB
 90
      255
102
RTVSPost2010PropOp44
 70
     1
102
RTVSPost2010Prop45
280
     0
102
RTVSPost2010PropOp45
 70
     1
102
RTVSPost2010Prop46
 90
       50
102
RTVSPost2010PropOp46
 70
     1
102
RTVSPost2010Prop47
 90
       50
102
RTVSPost2010PropOp47
 70
     1
102
RTVSPost2010Prop48
 90
       50
102
RTVSPost2010PropOp48
 70
     1
102
RTVSPost2010Prop49
280
     0
102
RTVSPost2010PropOp49
 70
     1
102
RTVSPost2010Prop50
 90
       50
102
RTVSPost2010PropOp50
 70
     1
102
RTVSPost2010Prop51ColorIndex
 90
      256
102
RTVSPost2010Prop51ColorRGB
 90
-16777216
102
RTVSPost2010PropOp51
 70
     0
102
RTVSPost2010Prop52
140
1.0
102
RTVSPost2010PropOp52
 70
     0
102
RTVSPost2010Prop53
 90
        2
102
RTVSPost2010PropOp53
 70
     1
102
RTVSPost2010Prop54
  1
strokes_ogs.tif
102
RTVSPost2010PropOp54
 70
     1
102
RTVSPost2010Prop55
280
     0
102
RTVSPost2010PropOp55
 70
     1
102
RTVSPost2010Prop56
140
1.0
102
RTVSPost2010PropOp56
 70
     1
102
RTVSPost2010Prop57
140
1.0
102
RTVSPost2010PropOp57
 70
     1
102
RTVSPropertyOp0
 70
     1
102
RTVSPropertyOp1
 70
     1
102
RTVSPropertyOp2
 70
     1
102
RTVSPropertyOp3
 70
     1
102
RTVSPropertyOp4
 70
     1
102
RTVSPropertyOp5
 70
     1
102
RTVSPropertyOp6
 70
     1
102
RTVSPropertyOp7
 70
     1
102
RTVSPropertyOp8
 70
     1
102
RTVSPropertyOp9
 70
     1
102
RTVSPropertyOp10
 70
     1
102
RTVSPropertyOp11
 70
     1
102
RTVSPropertyOp12
 70
     1
102
RTVSPropertyOp13
 70
     1
102
RTVSPropertyOp14
 70
     1
102
RTVSPropertyOp15
 70
     1
102
RTVSPropertyOp16
 70
     1
102
RTVSPropertyOp17
 70
     1
102
RTVSPropertyOp18
 70
     1
102
RTVSPropertyOp19
 70
     1
102
RTVSPropertyOp20
 70
     1
102
RTVSPropertyOp21
 70
     1
102
RTVSPropertyOp22
 70
     1
102
RTVSPropertyOp23
 70
     1
102
RTVSPropertyOp24
 70
     1
102
RTVSPropertyOp25
 70
     1
102
RTVSPropertyOp26
 70
     1
102
RTVSPropertyOp27
 70
     1
102
RTVSPropertyOp28
 70
     1
102
RTVSPropertyOp29
 70
     1
102
RTVSPropertyOp30
 70
     1
102
RTVSPropertyOp31
 70
     1
102
RTVSPropertyOp32
 70
     1
102
RTVSPropertyOp33
 70
     1
102
RTVSPropertyOp34
 70
     1
102
RTVSPropertyOp35
 70
     1
102
RTVSPropertyOp36
 70
     1
102
RTVSPropertyOp37
 70
     1
102
RTVSPropertyOp38
 70
     1
102
RTVSPropertyOp39
 70
     1
102
RTVSPropertyOp40
 70
     1
102
RTVSPropertyOp41
 70
     1
102
RTVSPropertyOp42
 70
     1
102
RTVSPropertyOp43
 70
     1
102
RTVSPropertyOp44
 70
     1
102
RTVSPropertyOp45
 70
     1
102
RTVSPropertyOp46
 70
     1
102
RTVSPropertyOp47
 70
     1
102
RTVSPropertyOp48
 70
     1
102
RTVSPropertyOp49
 70
     1
102
RTVSPropertyOp50
 70
     1
102
RTVSPropertyOp51
 70
     0
102
RTVSPropertyOp52
 70
     0
102
RTVSPropertyOp53
 70
     1
102
RTVSPropertyOp54
 70
     1
102
RTVSPropertyOp55
 70
     1
102
RTVSPropertyOp56
 70
     1
102
RTVSPropertyOp57
 70
     1
102
RTVSPropertyOp58
 70
     1
102
RTVSPropertyOp59
 70
     1
102
RTVSPropertyOp60
 70
     1
102
RTVSPropertyOp61
 70
     1
102
RTVSPropertyOp62
 70
     1
  0
XRECORD
  5
47B
102
{ACAD_REACTORS
330
47A
102
}
330
47A
100
AcDbXrecord
280
     1
102
RTVSPost2010Prop28
280
     0
102
RTVSPost2010PropOp28
 70
     1
102
RTVSPost2010Prop29
280
     1
102
RTVSPost2010PropOp29
 70
     1
102
RTVSPost2010Prop30
280
     1
102
RTVSPost2010PropOp30
 70
     1
102
RTVSPost2010Prop31
280
     0
102
RTVSPost2010PropOp31
 70
     1
102
RTVSPost2010Prop32
280
     0
102
RTVSPost2010PropOp32
 70
     1
102
RTVSPost2010Prop33
280
     0
102
RTVSPost2010PropOp33
 70
     1
102
RTVSPost2010Prop34
280
     0
102
RTVSPost2010PropOp34
 70
     1
102
RTVSPost2010Prop35
280
     0
102
RTVSPost2010PropOp35
 70
     1
102
RTVSPost2010Prop36
280
     0
102
RTVSPost2010PropOp36
 70
     1
102
RTVSPost2010Prop37
 90
       50
102
RTVSPost2010PropOp37
 70
     1
102
RTVSPost2010Prop38
140
0.0
102
RTVSPost2010PropOp38
 70
     1
102
RTVSPost2010Prop39
140
1.0
102
RTVSPost2010PropOp39
 70
     1
102
RTVSPost2010Prop40
 90
        0
102
RTVSPost2010PropOp40
 70
     1
102
RTVSPost2010Prop41ColorIndex
 90
       18
102
RTVSPost2010Prop41ColorRGB
 90
        0
102
RTVSPost2010PropOp41
 70
     1
102
RTVSPost2010Prop42
 90
       50
102
RTVSPost2010PropOp42
 70
     1
102
RTVSPost2010Prop43
 90
        3
102
RTVSPost2010PropOp43
 70
     1
102
RTVSPost2010Prop44ColorIndex
 90
        5
102
RTVSPost2010Prop44ColorRGB
 90
      255
102
RTVSPost2010PropOp44
 70
     1
102
RTVSPost2010Prop45
280
     0
102
RTVSPost2010PropOp45
 70
     1
102
RTVSPost2010Prop46
 90
       50
102
RTVSPost2010PropOp46
 70
     1
102
RTVSPost2010Prop47
 90
       50
102
RTVSPost2010PropOp47
 70
     1
102
RTVSPost2010Prop48
 90
       50
102
RTVSPost2010PropOp48
 70
     1
102
RTVSPost2010Prop49
280
     0
102
RTVSPost2010PropOp49
 70
     1
102
RTVSPost2010Prop50
 90
       50
102
RTVSPost2010PropOp50
 70
     1
102
RTVSPost2010Prop51ColorIndex
 90
      256
102
RTVSPost2010Prop51ColorRGB
 90
-16777216
102
RTVSPost2010PropOp51
 70
     0
102
RTVSPost2010Prop52
140
1.0
102
RTVSPost2010PropOp52
 70
     0
102
RTVSPost2010Prop53
 90
        2
102
RTVSPost2010PropOp53
 70
     1
102
RTVSPost2010Prop54
  1
strokes_ogs.tif
102
RTVSPost2010PropOp54
 70
     1
102
RTVSPost2010Prop55
280
     0
102
RTVSPost2010PropOp55
 70
     1
102
RTVSPost2010Prop56
140
1.0
102
RTVSPost2010PropOp56
 70
     1
102
RTVSPost2010Prop57
140
1.0
102
RTVSPost2010PropOp57
 70
     1
102
RTVSPropertyOp0
 70
     1
102
RTVSPropertyOp1
 70
     1
102
RTVSPropertyOp2
 70
     1
102
RTVSPropertyOp3
 70
     1
102
RTVSPropertyOp4
 70
     1
102
RTVSPropertyOp5
 70
     1
102
RTVSPropertyOp6
 70
     1
102
RTVSPropertyOp7
 70
     1
102
RTVSPropertyOp8
 70
     1
102
RTVSPropertyOp9
 70
     1
102
RTVSPropertyOp10
 70
     1
102
RTVSPropertyOp11
 70
     1
102
RTVSPropertyOp12
 70
     1
102
RTVSPropertyOp13
 70
     1
102
RTVSPropertyOp14
 70
     1
102
RTVSPropertyOp15
 70
     1
102
RTVSPropertyOp16
 70
     1
102
RTVSPropertyOp17
 70
     1
102
RTVSPropertyOp18
 70
     1
102
RTVSPropertyOp19
 70
     1
102
RTVSPropertyOp20
 70
     1
102
RTVSPropertyOp21
 70
     1
102
RTVSPropertyOp22
 70
     1
102
RTVSPropertyOp23
 70
     1
102
RTVSPropertyOp24
 70
     1
102
RTVSPropertyOp25
 70
     1
102
RTVSPropertyOp26
 70
     1
102
RTVSPropertyOp27
 70
     1
102
RTVSPropertyOp28
 70
     1
102
RTVSPropertyOp29
 70
     1
102
RTVSPropertyOp30
 70
     1
102
RTVSPropertyOp31
 70
     1
102
RTVSPropertyOp32
 70
     1
102
RTVSPropertyOp33
 70
     1
102
RTVSPropertyOp34
 70
     1
102
RTVSPropertyOp35
 70
     1
102
RTVSPropertyOp36
 70
     1
102
RTVSPropertyOp37
 70
     1
102
RTVSPropertyOp38
 70
     1
102
RTVSPropertyOp39
 70
     1
102
RTVSPropertyOp40
 70
     1
102
RTVSPropertyOp41
 70
     1
102
RTVSPropertyOp42
 70
     1
102
RTVSPropertyOp43
 70
     1
102
RTVSPropertyOp44
 70
     1
102
RTVSPropertyOp45
 70
     1
102
RTVSPropertyOp46
 70
     1
102
RTVSPropertyOp47
 70
     1
102
RTVSPropertyOp48
 70
     1
102
RTVSPropertyOp49
 70
     1
102
RTVSPropertyOp50
 70
     1
102
RTVSPropertyOp51
 70
     0
102
RTVSPropertyOp52
 70
     0
102
RTVSPropertyOp53
 70
     1
102
RTVSPropertyOp54
 70
     1
102
RTVSPropertyOp55
 70
     1
102
RTVSPropertyOp56
 70
     1
102
RTVSPropertyOp57
 70
     1
102
RTVSPropertyOp58
 70
     1
102
RTVSPropertyOp59
 70
     1
102
RTVSPropertyOp60
 70
     1
102
RTVSPropertyOp61
 70
     1
102
RTVSPropertyOp62
 70
     1
  0
XRECORD
  5
47D
102
{ACAD_REACTORS
330
47C
102
}
330
47C
100
AcDbXrecord
280
     1
102
RTVSPost2010Prop28
280
     0
102
RTVSPost2010PropOp28
 70
     1
102
RTVSPost2010Prop29
280
     1
102
RTVSPost2010PropOp29
 70
     1
102
RTVSPost2010Prop30
280
     1
102
RTVSPost2010PropOp30
 70
     1
102
RTVSPost2010Prop31
280
     0
102
RTVSPost2010PropOp31
 70
     1
102
RTVSPost2010Prop32
280
     0
102
RTVSPost2010PropOp32
 70
     1
102
RTVSPost2010Prop33
280
     0
102
RTVSPost2010PropOp33
 70
     1
102
RTVSPost2010Prop34
280
     0
102
RTVSPost2010PropOp34
 70
     1
102
RTVSPost2010Prop35
280
     0
102
RTVSPost2010PropOp35
 70
     1
102
RTVSPost2010Prop36
280
     0
102
RTVSPost2010PropOp36
 70
     1
102
RTVSPost2010Prop37
 90
       50
102
RTVSPost2010PropOp37
 70
     1
102
RTVSPost2010Prop38
140
0.0
102
RTVSPost2010PropOp38
 70
     1
102
RTVSPost2010Prop39
140
1.0
102
RTVSPost2010PropOp39
 70
     1
102
RTVSPost2010Prop40
 90
        0
102
RTVSPost2010PropOp40
 70
     1
102
RTVSPost2010Prop41ColorIndex
 90
       18
102
RTVSPost2010Prop41ColorRGB
 90
        0
102
RTVSPost2010PropOp41
 70
     1
102
RTVSPost2010Prop42
 90
       50
102
RTVSPost2010PropOp42
 70
     1
102
RTVSPost2010Prop43
 90
        3
102
RTVSPost2010PropOp43
 70
     1
102
RTVSPost2010Prop44ColorIndex
 90
        5
102
RTVSPost2010Prop44ColorRGB
 90
      255
102
RTVSPost2010PropOp44
 70
     1
102
RTVSPost2010Prop45
280
     0
102
RTVSPost2010PropOp45
 70
     1
102
RTVSPost2010Prop46
 90
       50
102
RTVSPost2010PropOp46
 70
     1
102
RTVSPost2010Prop47
 90
       50
102
RTVSPost2010PropOp47
 70
     1
102
RTVSPost2010Prop48
 90
       50
102
RTVSPost2010PropOp48
 70
     1
102
RTVSPost2010Prop49
280
     0
102
RTVSPost2010PropOp49
 70
     1
102
RTVSPost2010Prop50
 90
       50
102
RTVSPost2010PropOp50
 70
     1
102
RTVSPost2010Prop51ColorIndex
 90
      256
102
RTVSPost2010Prop51ColorRGB
 90
-16777216
102
RTVSPost2010PropOp51
 70
     0
102
RTVSPost2010Prop52
140
1.0
102
RTVSPost2010PropOp52
 70
     0
102
RTVSPost2010Prop53
 90
        2
102
RTVSPost2010PropOp53
 70
     1
102
RTVSPost2010Prop54
  1
strokes_ogs.tif
102
RTVSPost2010PropOp54
 70
     1
102
RTVSPost2010Prop55
280
     0
102
RTVSPost2010PropOp55
 70
     1
102
RTVSPost2010Prop56
140
1.0
102
RTVSPost2010PropOp56
 70
     1
102
RTVSPost2010Prop57
140
1.0
102
RTVSPost2010PropOp57
 70
     1
102
RTVSPropertyOp0
 70
     1
102
RTVSPropertyOp1
 70
     1
102
RTVSPropertyOp2
 70
     1
102
RTVSPropertyOp3
 70
     1
102
RTVSPropertyOp4
 70
     1
102
RTVSPropertyOp5
 70
     1
102
RTVSPropertyOp6
 70
     1
102
RTVSPropertyOp7
 70
     1
102
RTVSPropertyOp8
 70
     1
102
RTVSPropertyOp9
 70
     1
102
RTVSPropertyOp10
 70
     1
102
RTVSPropertyOp11
 70
     1
102
RTVSPropertyOp12
 70
     1
102
RTVSPropertyOp13
 70
     1
102
RTVSPropertyOp14
 70
     1
102
RTVSPropertyOp15
 70
     1
102
RTVSPropertyOp16
 70
     1
102
RTVSPropertyOp17
 70
     1
102
RTVSPropertyOp18
 70
     1
102
RTVSPropertyOp19
 70
     1
102
RTVSPropertyOp20
 70
     1
102
RTVSPropertyOp21
 70
     1
102
RTVSPropertyOp22
 70
     1
102
RTVSPropertyOp23
 70
     1
102
RTVSPropertyOp24
 70
     1
102
RTVSPropertyOp25
 70
     1
102
RTVSPropertyOp26
 70
     1
102
RTVSPropertyOp27
 70
     1
102
RTVSPropertyOp28
 70
     1
102
RTVSPropertyOp29
 70
     1
102
RTVSPropertyOp30
 70
     1
102
RTVSPropertyOp31
 70
     1
102
RTVSPropertyOp32
 70
     1
102
RTVSPropertyOp33
 70
     1
102
RTVSPropertyOp34
 70
     1
102
RTVSPropertyOp35
 70
     1
102
RTVSPropertyOp36
 70
     1
102
RTVSPropertyOp37
 70
     1
102
RTVSPropertyOp38
 70
     1
102
RTVSPropertyOp39
 70
     1
102
RTVSPropertyOp40
 70
     1
102
RTVSPropertyOp41
 70
     1
102
RTVSPropertyOp42
 70
     1
102
RTVSPropertyOp43
 70
     1
102
RTVSPropertyOp44
 70
     1
102
RTVSPropertyOp45
 70
     1
102
RTVSPropertyOp46
 70
     1
102
RTVSPropertyOp47
 70
     1
102
RTVSPropertyOp48
 70
     1
102
RTVSPropertyOp49
 70
     1
102
RTVSPropertyOp50
 70
     1
102
RTVSPropertyOp51
 70
     0
102
RTVSPropertyOp52
 70
     0
102
RTVSPropertyOp53
 70
     1
102
RTVSPropertyOp54
 70
     1
102
RTVSPropertyOp55
 70
     1
102
RTVSPropertyOp56
 70
     1
102
RTVSPropertyOp57
 70
     1
102
RTVSPropertyOp58
 70
     1
102
RTVSPropertyOp59
 70
     1
102
RTVSPropertyOp60
 70
     1
102
RTVSPropertyOp61
 70
     1
102
RTVSPropertyOp62
 70
     1
  0
XRECORD
  5
473
102
{ACAD_REACTORS
330
472
102
}
330
472
100
AcDbXrecord
280
     1
102
RTVSPost2010Prop28
280
     0
102
RTVSPost2010PropOp28
 70
     1
102
RTVSPost2010Prop29
280
     1
102
RTVSPost2010PropOp29
 70
     1
102
RTVSPost2010Prop30
280
     1
102
RTVSPost2010PropOp30
 70
     1
102
RTVSPost2010Prop31
280
     0
102
RTVSPost2010PropOp31
 70
     1
102
RTVSPost2010Prop32
280
     0
102
RTVSPost2010PropOp32
 70
     1
102
RTVSPost2010Prop33
280
     0
102
RTVSPost2010PropOp33
 70
     1
102
RTVSPost2010Prop34
280
     0
102
RTVSPost2010PropOp34
 70
     1
102
RTVSPost2010Prop35
280
     0
102
RTVSPost2010PropOp35
 70
     1
102
RTVSPost2010Prop36
280
     0
102
RTVSPost2010PropOp36
 70
     1
102
RTVSPost2010Prop37
 90
       50
102
RTVSPost2010PropOp37
 70
     1
102
RTVSPost2010Prop38
140
0.0
102
RTVSPost2010PropOp38
 70
     1
102
RTVSPost2010Prop39
140
1.0
102
RTVSPost2010PropOp39
 70
     1
102
RTVSPost2010Prop40
 90
        0
102
RTVSPost2010PropOp40
 70
     1
102
RTVSPost2010Prop41ColorIndex
 90
       18
102
RTVSPost2010Prop41ColorRGB
 90
        0
102
RTVSPost2010PropOp41
 70
     1
102
RTVSPost2010Prop42
 90
       50
102
RTVSPost2010PropOp42
 70
     1
102
RTVSPost2010Prop43
 90
        3
102
RTVSPost2010PropOp43
 70
     1
102
RTVSPost2010Prop44ColorIndex
 90
        5
102
RTVSPost2010Prop44ColorRGB
 90
      255
102
RTVSPost2010PropOp44
 70
     1
102
RTVSPost2010Prop45
280
     0
102
RTVSPost2010PropOp45
 70
     1
102
RTVSPost2010Prop46
 90
       50
102
RTVSPost2010PropOp46
 70
     1
102
RTVSPost2010Prop47
 90
       50
102
RTVSPost2010PropOp47
 70
     1
102
RTVSPost2010Prop48
 90
       50
102
RTVSPost2010PropOp48
 70
     1
102
RTVSPost2010Prop49
280
     0
102
RTVSPost2010PropOp49
 70
     1
102
RTVSPost2010Prop50
 90
       50
102
RTVSPost2010PropOp50
 70
     1
102
RTVSPost2010Prop51ColorIndex
 90
      256
102
RTVSPost2010Prop51ColorRGB
 90
-16777216
102
RTVSPost2010PropOp51
 70
     0
102
RTVSPost2010Prop52
140
1.0
102
RTVSPost2010PropOp52
 70
     0
102
RTVSPost2010Prop53
 90
        2
102
RTVSPost2010PropOp53
 70
     1
102
RTVSPost2010Prop54
  1
strokes_ogs.tif
102
RTVSPost2010PropOp54
 70
     1
102
RTVSPost2010Prop55
280
     0
102
RTVSPost2010PropOp55
 70
     1
102
RTVSPost2010Prop56
140
1.0
102
RTVSPost2010PropOp56
 70
     1
102
RTVSPost2010Prop57
140
1.0
102
RTVSPost2010PropOp57
 70
     1
102
RTVSPropertyOp0
 70
     1
102
RTVSPropertyOp1
 70
     1
102
RTVSPropertyOp2
 70
     1
102
RTVSPropertyOp3
 70
     1
102
RTVSPropertyOp4
 70
     1
102
RTVSPropertyOp5
 70
     1
102
RTVSPropertyOp6
 70
     1
102
RTVSPropertyOp7
 70
     1
102
RTVSPropertyOp8
 70
     1
102
RTVSPropertyOp9
 70
     1
102
RTVSPropertyOp10
 70
     1
102
RTVSPropertyOp11
 70
     1
102
RTVSPropertyOp12
 70
     1
102
RTVSPropertyOp13
 70
     1
102
RTVSPropertyOp14
 70
     1
102
RTVSPropertyOp15
 70
     1
102
RTVSPropertyOp16
 70
     1
102
RTVSPropertyOp17
 70
     1
102
RTVSPropertyOp18
 70
     1
102
RTVSPropertyOp19
 70
     1
102
RTVSPropertyOp20
 70
     1
102
RTVSPropertyOp21
 70
     1
102
RTVSPropertyOp22
 70
     1
102
RTVSPropertyOp23
 70
     1
102
RTVSPropertyOp24
 70
     1
102
RTVSPropertyOp25
 70
     1
102
RTVSPropertyOp26
 70
     1
102
RTVSPropertyOp27
 70
     1
102
RTVSPropertyOp28
 70
     1
102
RTVSPropertyOp29
 70
     1
102
RTVSPropertyOp30
 70
     1
102
RTVSPropertyOp31
 70
     1
102
RTVSPropertyOp32
 70
     1
102
RTVSPropertyOp33
 70
     1
102
RTVSPropertyOp34
 70
     1
102
RTVSPropertyOp35
 70
     1
102
RTVSPropertyOp36
 70
     1
102
RTVSPropertyOp37
 70
     1
102
RTVSPropertyOp38
 70
     1
102
RTVSPropertyOp39
 70
     1
102
RTVSPropertyOp40
 70
     1
102
RTVSPropertyOp41
 70
     1
102
RTVSPropertyOp42
 70
     1
102
RTVSPropertyOp43
 70
     1
102
RTVSPropertyOp44
 70
     1
102
RTVSPropertyOp45
 70
     1
102
RTVSPropertyOp46
 70
     1
102
RTVSPropertyOp47
 70
     1
102
RTVSPropertyOp48
 70
     1
102
RTVSPropertyOp49
 70
     1
102
RTVSPropertyOp50
 70
     1
102
RTVSPropertyOp51
 70
     0
102
RTVSPropertyOp52
 70
     0
102
RTVSPropertyOp53
 70
     1
102
RTVSPropertyOp54
 70
     1
102
RTVSPropertyOp55
 70
     1
102
RTVSPropertyOp56
 70
     1
102
RTVSPropertyOp57
 70
     1
102
RTVSPropertyOp58
 70
     1
102
RTVSPropertyOp59
 70
     1
102
RTVSPropertyOp60
 70
     1
102
RTVSPropertyOp61
 70
     1
102
RTVSPropertyOp62
 70
     1
  0
XRECORD
  5
467
102
{ACAD_REACTORS
330
466
102
}
330
466
100
AcDbXrecord
280
     1
102
RTVSPost2010Prop28
280
     0
102
RTVSPost2010PropOp28
 70
     1
102
RTVSPost2010Prop29
280
     1
102
RTVSPost2010PropOp29
 70
     1
102
RTVSPost2010Prop30
280
     1
102
RTVSPost2010PropOp30
 70
     1
102
RTVSPost2010Prop31
280
     0
102
RTVSPost2010PropOp31
 70
     1
102
RTVSPost2010Prop32
280
     0
102
RTVSPost2010PropOp32
 70
     1
102
RTVSPost2010Prop33
280
     0
102
RTVSPost2010PropOp33
 70
     1
102
RTVSPost2010Prop34
280
     0
102
RTVSPost2010PropOp34
 70
     1
102
RTVSPost2010Prop35
280
     0
102
RTVSPost2010PropOp35
 70
     1
102
RTVSPost2010Prop36
280
     0
102
RTVSPost2010PropOp36
 70
     1
102
RTVSPost2010Prop37
 90
       50
102
RTVSPost2010PropOp37
 70
     1
102
RTVSPost2010Prop38
140
0.0
102
RTVSPost2010PropOp38
 70
     1
102
RTVSPost2010Prop39
140
1.0
102
RTVSPost2010PropOp39
 70
     1
102
RTVSPost2010Prop40
 90
        0
102
RTVSPost2010PropOp40
 70
     1
102
RTVSPost2010Prop41ColorIndex
 90
       18
102
RTVSPost2010Prop41ColorRGB
 90
        0
102
RTVSPost2010PropOp41
 70
     1
102
RTVSPost2010Prop42
 90
       50
102
RTVSPost2010PropOp42
 70
     1
102
RTVSPost2010Prop43
 90
        3
102
RTVSPost2010PropOp43
 70
     1
102
RTVSPost2010Prop44ColorIndex
 90
        5
102
RTVSPost2010Prop44ColorRGB
 90
      255
102
RTVSPost2010PropOp44
 70
     1
102
RTVSPost2010Prop45
280
     0
102
RTVSPost2010PropOp45
 70
     1
102
RTVSPost2010Prop46
 90
       50
102
RTVSPost2010PropOp46
 70
     1
102
RTVSPost2010Prop47
 90
       50
102
RTVSPost2010PropOp47
 70
     1
102
RTVSPost2010Prop48
 90
       50
102
RTVSPost2010PropOp48
 70
     1
102
RTVSPost2010Prop49
280
     0
102
RTVSPost2010PropOp49
 70
     1
102
RTVSPost2010Prop50
 90
       50
102
RTVSPost2010PropOp50
 70
     1
102
RTVSPost2010Prop51ColorIndex
 90
      256
102
RTVSPost2010Prop51ColorRGB
 90
-16777216
102
RTVSPost2010PropOp51
 70
     0
102
RTVSPost2010Prop52
140
1.0
102
RTVSPost2010PropOp52
 70
     0
102
RTVSPost2010Prop53
 90
        2
102
RTVSPost2010PropOp53
 70
     1
102
RTVSPost2010Prop54
  1
strokes_ogs.tif
102
RTVSPost2010PropOp54
 70
     1
102
RTVSPost2010Prop55
280
     0
102
RTVSPost2010PropOp55
 70
     1
102
RTVSPost2010Prop56
140
1.0
102
RTVSPost2010PropOp56
 70
     1
102
RTVSPost2010Prop57
140
1.0
102
RTVSPost2010PropOp57
 70
     1
102
RTVSPropertyOp0
 70
     1
102
RTVSPropertyOp1
 70
     1
102
RTVSPropertyOp2
 70
     1
102
RTVSPropertyOp3
 70
     1
102
RTVSPropertyOp4
 70
     1
102
RTVSPropertyOp5
 70
     1
102
RTVSPropertyOp6
 70
     1
102
RTVSPropertyOp7
 70
     1
102
RTVSPropertyOp8
 70
     1
102
RTVSPropertyOp9
 70
     1
102
RTVSPropertyOp10
 70
     1
102
RTVSPropertyOp11
 70
     1
102
RTVSPropertyOp12
 70
     1
102
RTVSPropertyOp13
 70
     1
102
RTVSPropertyOp14
 70
     1
102
RTVSPropertyOp15
 70
     1
102
RTVSPropertyOp16
 70
     1
102
RTVSPropertyOp17
 70
     1
102
RTVSPropertyOp18
 70
     1
102
RTVSPropertyOp19
 70
     1
102
RTVSPropertyOp20
 70
     1
102
RTVSPropertyOp21
 70
     1
102
RTVSPropertyOp22
 70
     1
102
RTVSPropertyOp23
 70
     1
102
RTVSPropertyOp24
 70
     1
102
RTVSPropertyOp25
 70
     1
102
RTVSPropertyOp26
 70
     1
102
RTVSPropertyOp27
 70
     1
102
RTVSPropertyOp28
 70
     1
102
RTVSPropertyOp29
 70
     1
102
RTVSPropertyOp30
 70
     1
102
RTVSPropertyOp31
 70
     1
102
RTVSPropertyOp32
 70
     1
102
RTVSPropertyOp33
 70
     1
102
RTVSPropertyOp34
 70
     1
102
RTVSPropertyOp35
 70
     1
102
RTVSPropertyOp36
 70
     1
102
RTVSPropertyOp37
 70
     1
102
RTVSPropertyOp38
 70
     1
102
RTVSPropertyOp39
 70
     1
102
RTVSPropertyOp40
 70
     1
102
RTVSPropertyOp41
 70
     1
102
RTVSPropertyOp42
 70
     1
102
RTVSPropertyOp43
 70
     1
102
RTVSPropertyOp44
 70
     1
102
RTVSPropertyOp45
 70
     1
102
RTVSPropertyOp46
 70
     1
102
RTVSPropertyOp47
 70
     1
102
RTVSPropertyOp48
 70
     1
102
RTVSPropertyOp49
 70
     1
102
RTVSPropertyOp50
 70
     1
102
RTVSPropertyOp51
 70
     0
102
RTVSPropertyOp52
 70
     0
102
RTVSPropertyOp53
 70
     1
102
RTVSPropertyOp54
 70
     1
102
RTVSPropertyOp55
 70
     1
102
RTVSPropertyOp56
 70
     1
102
RTVSPropertyOp57
 70
     1
102
RTVSPropertyOp58
 70
     1
102
RTVSPropertyOp59
 70
     1
102
RTVSPropertyOp60
 70
     1
102
RTVSPropertyOp61
 70
     1
102
RTVSPropertyOp62
 70
     1
  0
XRECORD
  5
47F
102
{ACAD_REACTORS
330
47E
102
}
330
47E
100
AcDbXrecord
280
     1
102
RTVSPost2010Prop28
280
     0
102
RTVSPost2010PropOp28
 70
     1
102
RTVSPost2010Prop29
280
     1
102
RTVSPost2010PropOp29
 70
     1
102
RTVSPost2010Prop30
280
     1
102
RTVSPost2010PropOp30
 70
     1
102
RTVSPost2010Prop31
280
     0
102
RTVSPost2010PropOp31
 70
     1
102
RTVSPost2010Prop32
280
     0
102
RTVSPost2010PropOp32
 70
     1
102
RTVSPost2010Prop33
280
     0
102
RTVSPost2010PropOp33
 70
     1
102
RTVSPost2010Prop34
280
     0
102
RTVSPost2010PropOp34
 70
     1
102
RTVSPost2010Prop35
280
     0
102
RTVSPost2010PropOp35
 70
     1
102
RTVSPost2010Prop36
280
     0
102
RTVSPost2010PropOp36
 70
     1
102
RTVSPost2010Prop37
 90
       50
102
RTVSPost2010PropOp37
 70
     1
102
RTVSPost2010Prop38
140
0.0
102
RTVSPost2010PropOp38
 70
     1
102
RTVSPost2010Prop39
140
1.0
102
RTVSPost2010PropOp39
 70
     1
102
RTVSPost2010Prop40
 90
        0
102
RTVSPost2010PropOp40
 70
     1
102
RTVSPost2010Prop41ColorIndex
 90
       18
102
RTVSPost2010Prop41ColorRGB
 90
        0
102
RTVSPost2010PropOp41
 70
     1
102
RTVSPost2010Prop42
 90
       50
102
RTVSPost2010PropOp42
 70
     1
102
RTVSPost2010Prop43
 90
        3
102
RTVSPost2010PropOp43
 70
     1
102
RTVSPost2010Prop44ColorIndex
 90
        5
102
RTVSPost2010Prop44ColorRGB
 90
      255
102
RTVSPost2010PropOp44
 70
     1
102
RTVSPost2010Prop45
280
     0
102
RTVSPost2010PropOp45
 70
     1
102
RTVSPost2010Prop46
 90
       50
102
RTVSPost2010PropOp46
 70
     1
102
RTVSPost2010Prop47
 90
       50
102
RTVSPost2010PropOp47
 70
     1
102
RTVSPost2010Prop48
 90
       50
102
RTVSPost2010PropOp48
 70
     1
102
RTVSPost2010Prop49
280
     0
102
RTVSPost2010PropOp49
 70
     1
102
RTVSPost2010Prop50
 90
       50
102
RTVSPost2010PropOp50
 70
     1
102
RTVSPost2010Prop51ColorIndex
 90
      256
102
RTVSPost2010Prop51ColorRGB
 90
-16777216
102
RTVSPost2010PropOp51
 70
     0
102
RTVSPost2010Prop52
140
1.0
102
RTVSPost2010PropOp52
 70
     0
102
RTVSPost2010Prop53
 90
        2
102
RTVSPost2010PropOp53
 70
     1
102
RTVSPost2010Prop54
  1
strokes_ogs.tif
102
RTVSPost2010PropOp54
 70
     1
102
RTVSPost2010Prop55
280
     0
102
RTVSPost2010PropOp55
 70
     1
102
RTVSPost2010Prop56
140
1.0
102
RTVSPost2010PropOp56
 70
     1
102
RTVSPost2010Prop57
140
1.0
102
RTVSPost2010PropOp57
 70
     1
102
RTVSPropertyOp0
 70
     1
102
RTVSPropertyOp1
 70
     1
102
RTVSPropertyOp2
 70
     1
102
RTVSPropertyOp3
 70
     1
102
RTVSPropertyOp4
 70
     1
102
RTVSPropertyOp5
 70
     1
102
RTVSPropertyOp6
 70
     1
102
RTVSPropertyOp7
 70
     1
102
RTVSPropertyOp8
 70
     1
102
RTVSPropertyOp9
 70
     1
102
RTVSPropertyOp10
 70
     1
102
RTVSPropertyOp11
 70
     1
102
RTVSPropertyOp12
 70
     1
102
RTVSPropertyOp13
 70
     1
102
RTVSPropertyOp14
 70
     1
102
RTVSPropertyOp15
 70
     1
102
RTVSPropertyOp16
 70
     1
102
RTVSPropertyOp17
 70
     1
102
RTVSPropertyOp18
 70
     1
102
RTVSPropertyOp19
 70
     1
102
RTVSPropertyOp20
 70
     1
102
RTVSPropertyOp21
 70
     1
102
RTVSPropertyOp22
 70
     1
102
RTVSPropertyOp23
 70
     1
102
RTVSPropertyOp24
 70
     1
102
RTVSPropertyOp25
 70
     1
102
RTVSPropertyOp26
 70
     1
102
RTVSPropertyOp27
 70
     1
102
RTVSPropertyOp28
 70
     1
102
RTVSPropertyOp29
 70
     1
102
RTVSPropertyOp30
 70
     1
102
RTVSPropertyOp31
 70
     1
102
RTVSPropertyOp32
 70
     1
102
RTVSPropertyOp33
 70
     1
102
RTVSPropertyOp34
 70
     1
102
RTVSPropertyOp35
 70
     1
102
RTVSPropertyOp36
 70
     1
102
RTVSPropertyOp37
 70
     1
102
RTVSPropertyOp38
 70
     1
102
RTVSPropertyOp39
 70
     1
102
RTVSPropertyOp40
 70
     1
102
RTVSPropertyOp41
 70
     1
102
RTVSPropertyOp42
 70
     1
102
RTVSPropertyOp43
 70
     1
102
RTVSPropertyOp44
 70
     1
102
RTVSPropertyOp45
 70
     1
102
RTVSPropertyOp46
 70
     1
102
RTVSPropertyOp47
 70
     1
102
RTVSPropertyOp48
 70
     1
102
RTVSPropertyOp49
 70
     1
102
RTVSPropertyOp50
 70
     1
102
RTVSPropertyOp51
 70
     0
102
RTVSPropertyOp52
 70
     0
102
RTVSPropertyOp53
 70
     1
102
RTVSPropertyOp54
 70
     1
102
RTVSPropertyOp55
 70
     1
102
RTVSPropertyOp56
 70
     1
102
RTVSPropertyOp57
 70
     1
102
RTVSPropertyOp58
 70
     1
102
RTVSPropertyOp59
 70
     1
102
RTVSPropertyOp60
 70
     1
102
RTVSPropertyOp61
 70
     1
102
RTVSPropertyOp62
 70
     1
  0
ENDSEC
  0
EOF
